ISO-10303-21;
HEADER;
FILE_DESCRIPTION (( 'STEP AP203' ),
    '1' );
FILE_NAME ('956861.step',
    '2021-11-24T14:55:44',
    ( '' ),
    ( '' ),
    'SwSTEP 2.0',
    'SolidWorks 2019',
    '' );
FILE_SCHEMA (( 'CONFIG_CONTROL_DESIGN' ));
ENDSEC;

DATA;
#1 = DATE_AND_TIME ( #25, #28 ) ;
#2 = ORIENTED_EDGE ( 'NONE', *, *, #165, .T. ) ;
#3 = ORIENTED_EDGE ( 'NONE', *, *, #102, .T. ) ;
#4 = FACE_OUTER_BOUND ( 'NONE', #68, .T. ) ;
#5 =( NAMED_UNIT ( * ) SI_UNIT ( $, .STERADIAN. ) SOLID_ANGLE_UNIT ( ) );
#6 = MECHANICAL_CONTEXT ( 'NONE', #34, 'mechanical' ) ;
#7 = COORDINATED_UNIVERSAL_TIME_OFFSET ( 1, 0, .AHEAD. ) ;
#8 = CIRCLE ( 'NONE', #197, 1.499999999999995559 ) ;
#9 = DIRECTION ( 'NONE',  ( 0.0000000000000000000, 1.000000000000000000, 0.0000000000000000000 ) ) ;
#10 = VERTEX_POINT ( 'NONE', #147 ) ;
#11 = PRODUCT_DEFINITION_SHAPE ( 'NONE', 'NONE',  #133 ) ;
#12 = PERSON_AND_ORGANIZATION_ROLE ( 'creator' ) ;
#13 = CC_DESIGN_PERSON_AND_ORGANIZATION_ASSIGNMENT ( #60, #44, ( #54 ) ) ;
#14 = PERSON_AND_ORGANIZATION ( #51, #58 ) ;
#15 = CARTESIAN_POINT ( 'NONE',  ( -3.206873584422718079E-32, 1.124819836996392864E-33, -9.184850993605147205E-18 ) ) ;
#16 = DATE_AND_TIME ( #202, #114 ) ;
#17 = ORIENTED_EDGE ( 'NONE', *, *, #165, .F. ) ;
#18 = PLANE ( 'NONE',  #42 ) ;
#19 = EDGE_LOOP ( 'NONE', ( #82 ) ) ;
#20 = CARTESIAN_POINT ( 'NONE',  ( 1.316288464743861212E-13, -4.616918432785521081E-15, 37.69999999999999574 ) ) ;
#21 = CARTESIAN_POINT ( 'NONE',  ( 1.326762908760390423E-13, 1.199999999999991074, 38.00000000000000000 ) ) ;
#22 = APPROVAL_STATUS ( 'not_yet_approved' ) ;
#23 = DIRECTION ( 'NONE',  ( 0.0000000000000000000, 0.0000000000000000000, 1.000000000000000000 ) ) ;
#24 = CLOSED_SHELL ( 'NONE', ( #152, #37, #43 ) ) ;
#25 = CALENDAR_DATE ( 2021, 24, 11 ) ;
#26 = APPLICATION_PROTOCOL_DEFINITION ( 'international standard', 'config_control_design', 1994, #62 ) ;
#27 = CC_DESIGN_PERSON_AND_ORGANIZATION_ASSIGNMENT ( #120, #183, ( #133 ) ) ;
#28 = LOCAL_TIME ( 15, 55, 43.00000000000000000, #159 ) ;
#29 = EDGE_LOOP ( 'NONE', ( #111 ) ) ;
#30 = DIRECTION ( 'NONE',  ( -3.491481338843133355E-15, 1.224646799147353207E-16, -1.000000000000000000 ) ) ;
#31 = PERSON_AND_ORGANIZATION_ROLE ( 'design_supplier' ) ;
#32 = FACE_OUTER_BOUND ( 'NONE', #19, .T. ) ;
#33 = CYLINDRICAL_SURFACE ( 'NONE', #162, 1.499999999999993339 ) ;
#34 = APPLICATION_CONTEXT ( 'configuration controlled 3d designs of mechanical parts and assemblies' ) ;
#35 = DIRECTION ( 'NONE',  ( 3.491481338843133355E-15, -1.224646799147353207E-16, 1.000000000000000000 ) ) ;
#36 = PERSON_AND_ORGANIZATION ( #51, #58 ) ;
#37 = ADVANCED_FACE ( 'NONE', ( #65, #47 ), #192, .T. ) ;
#38 = PERSON_AND_ORGANIZATION ( #51, #58 ) ;
#39 = CIRCLE ( 'NONE', #75, 1.499999999999991118 ) ;
#40 = DATE_TIME_ROLE ( 'creation_date' ) ;
#41 = PRODUCT ( '956861', '956861', '', ( #6 ) ) ;
#42 = AXIS2_PLACEMENT_3D ( 'NONE', #81, #35, #91 ) ;
#43 = ADVANCED_FACE ( 'NONE', ( #66 ), #83, .T. ) ;
#44 = PERSON_AND_ORGANIZATION_ROLE ( 'classification_officer' ) ;
#45 = PLANE ( 'NONE',  #103 ) ;
#46 = CALENDAR_DATE ( 2021, 24, 11 ) ;
#47 = FACE_BOUND ( 'NONE', #142, .T. ) ;
#48 = DATE_AND_TIME ( #46, #200 ) ;
#49 = ORIENTED_EDGE ( 'NONE', *, *, #102, .F. ) ;
#50 = EDGE_LOOP ( 'NONE', ( #3 ) ) ;
#51 = PERSON ( 'UNSPECIFIED', 'UNSPECIFIED', 'UNSPECIFIED', ('UNSPECIFIED'), ('UNSPECIFIED'), ('UNSPECIFIED') ) ;
#52 =( LENGTH_UNIT ( ) NAMED_UNIT ( * ) SI_UNIT ( .MILLI., .METRE. ) );
#53 =( GEOMETRIC_REPRESENTATION_CONTEXT ( 3 ) GLOBAL_UNCERTAINTY_ASSIGNED_CONTEXT ( ( #128 ) ) GLOBAL_UNIT_ASSIGNED_CONTEXT ( ( #52, #164, #5 ) ) REPRESENTATION_CONTEXT ( 'NONE', 'WORKASPACE' ) );
#54 = SECURITY_CLASSIFICATION ( '', '', #112 ) ;
#55 = APPROVAL ( #108, 'UNSPECIFIED' ) ;
#56 = DATE_AND_TIME ( #117, #98 ) ;
#57 = APPROVAL_ROLE ( '' ) ;
#58 = ORGANIZATION ( 'UNSPECIFIED', 'UNSPECIFIED', '' ) ;
#59 = PRODUCT_RELATED_PRODUCT_CATEGORY ( 'detail', '', ( #41 ) ) ;
#60 = PERSON_AND_ORGANIZATION ( #51, #58 ) ;
#61 = DIRECTION ( 'NONE',  ( 0.0000000000000000000, 1.000000000000000000, 0.0000000000000000000 ) ) ;
#62 = APPLICATION_CONTEXT ( 'configuration controlled 3d designs of mechanical parts and assemblies' ) ;
#63 = CC_DESIGN_APPROVAL ( #160, ( #133 ) ) ;
#64 = DIRECTION ( 'NONE',  ( -3.491481338843133355E-15, 1.224646799147353207E-16, -1.000000000000000000 ) ) ;
#65 = FACE_OUTER_BOUND ( 'NONE', #113, .T. ) ;
#66 = FACE_OUTER_BOUND ( 'NONE', #143, .T. ) ;
#67 = ADVANCED_FACE ( 'NONE', ( #172 ), #18, .F. ) ;
#68 = EDGE_LOOP ( 'NONE', ( #167 ) ) ;
#69 = AXIS2_PLACEMENT_3D ( 'NONE', #106, #195, #149 ) ;
#70 = CARTESIAN_POINT ( 'NONE',  ( 1.326762908760390423E-13, 8.998558695971044381E-33, 38.00000000000000000 ) ) ;
#71 = APPROVAL_DATE_TIME ( #56, #160 ) ;
#72 = CC_DESIGN_PERSON_AND_ORGANIZATION_ASSIGNMENT ( #14, #31, ( #188 ) ) ;
#73 = AXIS2_PLACEMENT_3D ( 'NONE', #97, #144, #186 ) ;
#74 = VERTEX_POINT ( 'NONE', #158 ) ;
#75 = AXIS2_PLACEMENT_3D ( 'NONE', #124, #30, #154 ) ;
#76 = DATE_TIME_ROLE ( 'classification_date' ) ;
#77 = PERSON_AND_ORGANIZATION ( #51, #58 ) ;
#78 = ORIENTED_EDGE ( 'NONE', *, *, #132, .F. ) ;
#79 = CLOSED_SHELL ( 'NONE', ( #67, #86, #171, #173 ) ) ;
#80 = FACE_BOUND ( 'NONE', #116, .T. ) ;
#81 = CARTESIAN_POINT ( 'NONE',  ( 4.713499807438183487E-15, 1.124819836996386637E-32, 1.349999999999986544 ) ) ;
#82 = ORIENTED_EDGE ( 'NONE', *, *, #136, .F. ) ;
#83 = PLANE ( 'NONE',  #73 ) ;
#84 = CC_DESIGN_APPROVAL ( #55, ( #54 ) ) ;
#85 = CARTESIAN_POINT ( 'NONE',  ( 4.713499807438183487E-15, 1.499999999999990896, 1.349999999999986544 ) ) ;
#86 = ADVANCED_FACE ( 'NONE', ( #169, #4 ), #33, .T. ) ;
#87 = CC_DESIGN_APPROVAL ( #95, ( #188 ) ) ;
#88 = CIRCLE ( 'NONE', #69, 1.199999999999995515 ) ;
#89 = VERTEX_POINT ( 'NONE', #21 ) ;
#90 = CIRCLE ( 'NONE', #184, 0.1499999999999999667 ) ;
#91 = DIRECTION ( 'NONE',  ( -4.275831445896958607E-31, -1.000000000000000000, -1.224646799147353207E-16 ) ) ;
#92 = ORIENTED_EDGE ( 'NONE', *, *, #181, .F. ) ;
#93 = AXIS2_PLACEMENT_3D ( 'NONE', #70, #161, #99 ) ;
#94 = CARTESIAN_POINT ( 'NONE',  ( 4.713499807438182698E-15, -1.653273178848910350E-16, 1.349999999999986322 ) ) ;
#95 = APPROVAL ( #101, 'UNSPECIFIED' ) ;
#96 = ORIENTED_EDGE ( 'NONE', *, *, #181, .T. ) ;
#97 = CARTESIAN_POINT ( 'NONE',  ( 4.713499807438183487E-15, 1.124819836996386637E-32, 1.349999999999986544 ) ) ;
#98 = LOCAL_TIME ( 15, 55, 43.00000000000000000, #7 ) ;
#99 = DIRECTION ( 'NONE',  ( 4.275831445896958607E-31, 1.000000000000000000, 1.224646799147353207E-16 ) ) ;
#100 = FACE_OUTER_BOUND ( 'NONE', #191, .T. ) ;
#101 = APPROVAL_STATUS ( 'not_yet_approved' ) ;
#102 = EDGE_CURVE ( 'NONE', #151, #151, #141, .T. ) ;
#103 = AXIS2_PLACEMENT_3D ( 'NONE', #15, #203, #110 ) ;
#104 = APPROVAL_ROLE ( '' ) ;
#105 = AXIS2_PLACEMENT_3D ( 'NONE', #190, #155, #9 ) ;
#106 = CARTESIAN_POINT ( 'NONE',  ( 1.326762908760390423E-13, -4.653657836759941941E-15, 38.00000000000000000 ) ) ;
#107 = CC_DESIGN_PERSON_AND_ORGANIZATION_ASSIGNMENT ( #36, #176, ( #41 ) ) ;
#108 = APPROVAL_STATUS ( 'not_yet_approved' ) ;
#109 = CC_DESIGN_DATE_AND_TIME_ASSIGNMENT ( #182, #40, ( #133 ) ) ;
#110 = DIRECTION ( 'NONE',  ( 4.275831445896958607E-31, 1.000000000000000000, 1.224646799147353207E-16 ) ) ;
#111 = ORIENTED_EDGE ( 'NONE', *, *, #132, .T. ) ;
#112 = SECURITY_CLASSIFICATION_LEVEL ( 'unclassified' ) ;
#113 = EDGE_LOOP ( 'NONE', ( #2 ) ) ;
#114 = LOCAL_TIME ( 15, 55, 43.00000000000000000, #139 ) ;
#115 = DIRECTION ( 'NONE',  ( -4.275831445896958607E-31, -1.000000000000000000, -1.224646799147353207E-16 ) ) ;
#116 = EDGE_LOOP ( 'NONE', ( #96 ) ) ;
#117 = CALENDAR_DATE ( 2021, 24, 11 ) ;
#118 = COORDINATED_UNIVERSAL_TIME_OFFSET ( 1, 0, .AHEAD. ) ;
#119 = CARTESIAN_POINT ( 'NONE',  ( 4.713499807438183487E-15, 1.499999999999990896, 1.349999999999986544 ) ) ;
#120 = PERSON_AND_ORGANIZATION ( #51, #58 ) ;
#121 = APPROVAL_ROLE ( '' ) ;
#122 = FACE_OUTER_BOUND ( 'NONE', #29, .T. ) ;
#123 = APPROVAL_DATE_TIME ( #1, #95 ) ;
#124 = CARTESIAN_POINT ( 'NONE',  ( 4.713499807438182698E-15, -1.653273178848910350E-16, 1.349999999999986322 ) ) ;
#125 = DIRECTION ( 'NONE',  ( 3.491481338843133355E-15, -1.224646799147353207E-16, 1.000000000000000000 ) ) ;
#126 = DIRECTION ( 'NONE',  ( 4.275831445896958607E-31, 1.000000000000000000, 1.224646799147353207E-16 ) ) ;
#127 = CONICAL_SURFACE ( 'NONE', #105, 1.199999999999995515, 0.7853981633974453924 ) ;
#128 = UNCERTAINTY_MEASURE_WITH_UNIT (LENGTH_MEASURE( 1.000000000000000082E-05 ), #52, 'distance_accuracy_value', 'NONE');
#129 = CARTESIAN_POINT ( 'NONE',  ( 0.0000000000000000000, 0.0000000000000000000, 0.0000000000000000000 ) ) ;
#130 = CARTESIAN_POINT ( 'NONE',  ( 0.0000000000000000000, 0.0000000000000000000, 0.0000000000000000000 ) ) ;
#131 = AXIS2_PLACEMENT_3D ( 'NONE', #94, #193, #153 ) ;
#132 = EDGE_CURVE ( 'NONE', #10, #10, #90, .T. ) ;
#133 = PRODUCT_DEFINITION ( 'UNKNOWN', '', #188, #168 ) ;
#134 = CC_DESIGN_SECURITY_CLASSIFICATION ( #54, ( #188 ) ) ;
#135 = COORDINATED_UNIVERSAL_TIME_OFFSET ( 1, 0, .AHEAD. ) ;
#136 = EDGE_CURVE ( 'NONE', #74, #74, #8, .T. ) ;
#137 = SHAPE_DEFINITION_REPRESENTATION ( #11, #150 ) ;
#138 = APPROVAL_DATE_TIME ( #16, #55 ) ;
#139 = COORDINATED_UNIVERSAL_TIME_OFFSET ( 1, 0, .AHEAD. ) ;
#140 = DIRECTION ( 'NONE',  ( -3.491481338843133355E-15, 1.224646799147353207E-16, -1.000000000000000000 ) ) ;
#141 = CIRCLE ( 'NONE', #131, 1.499999999999991118 ) ;
#142 = EDGE_LOOP ( 'NONE', ( #78 ) ) ;
#143 = EDGE_LOOP ( 'NONE', ( #17 ) ) ;
#144 = DIRECTION ( 'NONE',  ( 3.491481338843133355E-15, -1.224646799147353207E-16, 1.000000000000000000 ) ) ;
#145 = CC_DESIGN_DATE_AND_TIME_ASSIGNMENT ( #48, #76, ( #54 ) ) ;
#146 = CARTESIAN_POINT ( 'NONE',  ( -6.413747168845436158E-32, 2.249639673992785728E-33, -1.836970198721029441E-17 ) ) ;
#147 = CARTESIAN_POINT ( 'NONE',  ( 0.0000000000000000000, 0.1499999999999999667, 0.0000000000000000000 ) ) ;
#148 = AXIS2_PLACEMENT_3D ( 'NONE', #130, #23, #198 ) ;
#149 = DIRECTION ( 'NONE',  ( 0.0000000000000000000, 1.000000000000000000, 0.0000000000000000000 ) ) ;
#150 = ADVANCED_BREP_SHAPE_REPRESENTATION ( '956861', ( #163, #174, #148 ), #53 ) ;
#151 = VERTEX_POINT ( 'NONE', #85 ) ;
#152 = ADVANCED_FACE ( 'NONE', ( #122 ), #45, .T. ) ;
#153 = DIRECTION ( 'NONE',  ( 5.135813185032659303E-31, 1.000000000000000000, 1.445602896647347791E-16 ) ) ;
#154 = DIRECTION ( 'NONE',  ( 5.135813185032659303E-31, 1.000000000000000000, 1.445602896647347791E-16 ) ) ;
#155 = DIRECTION ( 'NONE',  ( -3.491481338843133355E-15, 1.224646799147353207E-16, -1.000000000000000000 ) ) ;
#156 = DIRECTION ( 'NONE',  ( 4.275831445896958607E-31, 1.000000000000000000, 1.224646799147353207E-16 ) ) ;
#157 = DIRECTION ( 'NONE',  ( -3.491481338843133355E-15, 1.224646799147353207E-16, -1.000000000000000000 ) ) ;
#158 = CARTESIAN_POINT ( 'NONE',  ( 1.316288464743861212E-13, 1.499999999999990896, 37.69999999999999574 ) ) ;
#159 = COORDINATED_UNIVERSAL_TIME_OFFSET ( 1, 0, .AHEAD. ) ;
#160 = APPROVAL ( #22, 'UNSPECIFIED' ) ;
#161 = DIRECTION ( 'NONE',  ( -3.491481338843133355E-15, 1.224646799147353207E-16, -1.000000000000000000 ) ) ;
#162 = AXIS2_PLACEMENT_3D ( 'NONE', #129, #157, #126 ) ;
#163 = MANIFOLD_SOLID_BREP ( 'Corps-Déplacer/Copier2[1]', #79 ) ;
#164 =( NAMED_UNIT ( * ) PLANE_ANGLE_UNIT ( ) SI_UNIT ( $, .RADIAN. ) );
#165 = EDGE_CURVE ( 'NONE', #194, #194, #39, .T. ) ;
#166 = APPROVAL_PERSON_ORGANIZATION ( #77, #55, #121 ) ;
#167 = ORIENTED_EDGE ( 'NONE', *, *, #136, .T. ) ;
#168 = DESIGN_CONTEXT ( 'detailed design', #62, 'design' ) ;
#169 = FACE_OUTER_BOUND ( 'NONE', #189, .T. ) ;
#170 = LOCAL_TIME ( 15, 55, 43.00000000000000000, #118 ) ;
#171 = ADVANCED_FACE ( 'NONE', ( #32, #80 ), #127, .T. ) ;
#172 = FACE_OUTER_BOUND ( 'NONE', #50, .T. ) ;
#173 = ADVANCED_FACE ( 'NONE', ( #100 ), #196, .F. ) ;
#174 = MANIFOLD_SOLID_BREP ( 'Corps-Déplacer/Copier2[2]', #24 ) ;
#175 = CARTESIAN_POINT ( 'NONE',  ( -6.413747168845436158E-32, 2.249639673992785728E-33, -1.836970198721029441E-17 ) ) ;
#176 = PERSON_AND_ORGANIZATION_ROLE ( 'design_owner' ) ;
#177 = APPROVAL_PERSON_ORGANIZATION ( #38, #95, #104 ) ;
#178 = APPLICATION_PROTOCOL_DEFINITION ( 'international standard', 'config_control_design', 1994, #34 ) ;
#179 = CALENDAR_DATE ( 2021, 24, 11 ) ;
#180 = APPROVAL_PERSON_ORGANIZATION ( #199, #160, #57 ) ;
#181 = EDGE_CURVE ( 'NONE', #89, #89, #88, .T. ) ;
#182 = DATE_AND_TIME ( #179, #170 ) ;
#183 = PERSON_AND_ORGANIZATION_ROLE ( 'creator' ) ;
#184 = AXIS2_PLACEMENT_3D ( 'NONE', #175, #64, #156 ) ;
#185 = PERSON_AND_ORGANIZATION ( #51, #58 ) ;
#186 = DIRECTION ( 'NONE',  ( -4.275831445896958607E-31, -1.000000000000000000, -1.224646799147353207E-16 ) ) ;
#187 = AXIS2_PLACEMENT_3D ( 'NONE', #146, #125, #115 ) ;
#188 = PRODUCT_DEFINITION_FORMATION_WITH_SPECIFIED_SOURCE ( 'ANY', '', #41, .NOT_KNOWN. ) ;
#189 = EDGE_LOOP ( 'NONE', ( #49 ) ) ;
#190 = CARTESIAN_POINT ( 'NONE',  ( 1.326762908760390423E-13, -4.653657836759941941E-15, 38.00000000000000000 ) ) ;
#191 = EDGE_LOOP ( 'NONE', ( #92 ) ) ;
#192 = CONICAL_SURFACE ( 'NONE', #187, 0.1499999999999999667, 0.7853981633974500554 ) ;
#193 = DIRECTION ( 'NONE',  ( -3.491481338843133355E-15, 1.224646799147353207E-16, -1.000000000000000000 ) ) ;
#194 = VERTEX_POINT ( 'NONE', #119 ) ;
#195 = DIRECTION ( 'NONE',  ( -3.491481338843133355E-15, 1.224646799147353207E-16, -1.000000000000000000 ) ) ;
#196 = PLANE ( 'NONE',  #93 ) ;
#197 = AXIS2_PLACEMENT_3D ( 'NONE', #20, #140, #61 ) ;
#198 = DIRECTION ( 'NONE',  ( 1.000000000000000000, 0.0000000000000000000, 0.0000000000000000000 ) ) ;
#199 = PERSON_AND_ORGANIZATION ( #51, #58 ) ;
#200 = LOCAL_TIME ( 15, 55, 43.00000000000000000, #135 ) ;
#201 = CC_DESIGN_PERSON_AND_ORGANIZATION_ASSIGNMENT ( #185, #12, ( #188 ) ) ;
#202 = CALENDAR_DATE ( 2021, 24, 11 ) ;
#203 = DIRECTION ( 'NONE',  ( -3.491481338843133355E-15, 1.224646799147353207E-16, -1.000000000000000000 ) ) ;
ENDSEC;
END-ISO-10303-21;
