ISO-10303-21;
HEADER;
FILE_DESCRIPTION (( 'STEP AP203' ),
    '1' );
FILE_NAME ('956801.step',
    '2021-09-21T07:38:02',
    ( '' ),
    ( '' ),
    'SwSTEP 2.0',
    'SolidWorks 2019',
    '' );
FILE_SCHEMA (( 'CONFIG_CONTROL_DESIGN' ));
ENDSEC;

DATA;
#1 = LINE ( 'NONE', #254, #97 ) ;
#2 = APPROVAL ( #369, 'UNSPECIFIED' ) ;
#3 = ORIENTED_EDGE ( 'NONE', *, *, #52, .T. ) ;
#4 = LINE ( 'NONE', #70, #195 ) ;
#5 = DIRECTION ( 'NONE',  ( -1.000000000000000000, 0.0000000000000000000, 3.469446951953620894E-15 ) ) ;
#6 = VERTEX_POINT ( 'NONE', #361 ) ;
#7 = LOCAL_TIME ( 9, 38, 2.000000000000000000, #290 ) ;
#8 = CYLINDRICAL_SURFACE ( 'NONE', #289, 0.9999999999999995559 ) ;
#9 = ADVANCED_FACE ( 'NONE', ( #397 ), #153, .T. ) ;
#10 = EDGE_LOOP ( 'NONE', ( #35, #3, #328, #146, #288 ) ) ;
#11 = DESIGN_CONTEXT ( 'detailed design', #45, 'design' ) ;
#12 = CALENDAR_DATE ( 2021, 21, 9 ) ;
#13 = CARTESIAN_POINT ( 'NONE',  ( 1.316288464743861212E-13, 1.499999999999996225, 37.69999999999999574 ) ) ;
#14 = ORIENTED_EDGE ( 'NONE', *, *, #240, .F. ) ;
#15 = DATE_TIME_ROLE ( 'creation_date' ) ;
#16 = EDGE_LOOP ( 'NONE', ( #311, #320, #283, #75, #94 ) ) ;
#17 =( LENGTH_UNIT ( ) NAMED_UNIT ( * ) SI_UNIT ( .MILLI., .METRE. ) );
#18 = EDGE_CURVE ( 'NONE', #61, #299, #332, .T. ) ;
#19 = CIRCLE ( 'NONE', #66, 0.9999999999999997780 ) ;
#20 = CONICAL_SURFACE ( 'NONE', #248, 1.200000000000000844, 0.7853981633974453924 ) ;
#21 = VERTEX_POINT ( 'NONE', #120 ) ;
#22 = CC_DESIGN_APPROVAL ( #402, ( #221 ) ) ;
#23 = DIRECTION ( 'NONE',  ( -3.491481338843133355E-15, 1.224646799147353207E-16, -1.000000000000000000 ) ) ;
#24 = CC_DESIGN_PERSON_AND_ORGANIZATION_ASSIGNMENT ( #321, #359, ( #47 ) ) ;
#25 = DIRECTION ( 'NONE',  ( 3.491481338843133355E-15, -1.224646799147353207E-16, 1.000000000000000000 ) ) ;
#26 = ADVANCED_BREP_SHAPE_REPRESENTATION ( '956801', ( #392, #390, #323 ), #128 ) ;
#27 = ADVANCED_FACE ( 'NONE', ( #182 ), #180, .T. ) ;
#28 = DIRECTION ( 'NONE',  ( -2.382254525458723780E-15, -0.7071067811865453523, -0.7071067811865496822 ) ) ;
#29 = ORIENTED_EDGE ( 'NONE', *, *, #317, .T. ) ;
#30 = AXIS2_PLACEMENT_3D ( 'NONE', #338, #211, #117 ) ;
#31 = FACE_OUTER_BOUND ( 'NONE', #245, .T. ) ;
#32 = DIRECTION ( 'NONE',  ( -1.000000000000000000, 0.0000000000000000000, 3.469446951953616555E-15 ) ) ;
#33 = DATE_AND_TIME ( #100, #388 ) ;
#34 = CARTESIAN_POINT ( 'NONE',  ( 1.500000000000017542, 0.0000000000000000000, 5.866025403784428605 ) ) ;
#35 = ORIENTED_EDGE ( 'NONE', *, *, #333, .F. ) ;
#36 = DIRECTION ( 'NONE',  ( -3.491481338843133355E-15, 1.224646799147353207E-16, -1.000000000000000000 ) ) ;
#37 = CARTESIAN_POINT ( 'NONE',  ( 0.9999999999999995559, 1.224646799147352714E-16, -3.491481338843131778E-15 ) ) ;
#38 = LINE ( 'NONE', #121, #334 ) ;
#39 = CONICAL_SURFACE ( 'NONE', #267, 1.499999999999997113, 0.5235987755982995928 ) ;
#40 = ORIENTED_EDGE ( 'NONE', *, *, #148, .T. ) ;
#41 = PERSON_AND_ORGANIZATION_ROLE ( 'design_owner' ) ;
#42 = ORIENTED_EDGE ( 'NONE', *, *, #148, .F. ) ;
#43 = CARTESIAN_POINT ( 'NONE',  ( -1.499999999999976907, 1.836970198721026483E-16, 5.866025403784438375 ) ) ;
#44 = ORIENTED_EDGE ( 'NONE', *, *, #213, .F. ) ;
#45 = APPLICATION_CONTEXT ( 'configuration controlled 3d designs of mechanical parts and assemblies' ) ;
#46 = DIRECTION ( 'NONE',  ( 1.000000000000000000, 0.0000000000000000000, 0.0000000000000000000 ) ) ;
#47 = PRODUCT_DEFINITION ( 'UNKNOWN', '', #110, #11 ) ;
#48 = CC_DESIGN_APPROVAL ( #2, ( #110 ) ) ;
#49 = CIRCLE ( 'NONE', #271, 1.500000000000000666 ) ;
#50 = CARTESIAN_POINT ( 'NONE',  ( 0.0000000000000000000, 0.0000000000000000000, 0.0000000000000000000 ) ) ;
#51 = CONICAL_SURFACE ( 'NONE', #355, 1.000000000000000000, 0.7853981633974428389 ) ;
#52 = EDGE_CURVE ( 'NONE', #138, #231, #49, .T. ) ;
#53 = DIRECTION ( 'NONE',  ( -7.703719777548943412E-31, -1.000000000000000000, -2.168404344971008868E-16 ) ) ;
#54 = APPROVAL_PERSON_ORGANIZATION ( #315, #402, #374 ) ;
#55 = CARTESIAN_POINT ( 'NONE',  ( 1.326762908760390423E-13, 1.199999999999996181, 38.00000000000000000 ) ) ;
#56 = EDGE_CURVE ( 'NONE', #175, #196, #155, .T. ) ;
#57 = DIRECTION ( 'NONE',  ( -3.491481338843133355E-15, 1.224646799147353207E-16, -1.000000000000000000 ) ) ;
#58 = PERSON_AND_ORGANIZATION_ROLE ( 'creator' ) ;
#59 = DIRECTION ( 'NONE',  ( -3.491481338843133355E-15, 0.0000000000000000000, -1.000000000000000000 ) ) ;
#60 = CARTESIAN_POINT ( 'NONE',  ( -0.9999999999999958922, 0.0000000000000000000, 1.000000000000002887 ) ) ;
#61 = VERTEX_POINT ( 'NONE', #181 ) ;
#62 = DIRECTION ( 'NONE',  ( -0.4999999999999976130, 6.123233995736774664E-17, 0.8660254037844399289 ) ) ;
#63 = CARTESIAN_POINT ( 'NONE',  ( 2.048111823049310484E-14, 0.0000000000000000000, 5.866025403784433045 ) ) ;
#64 = DATE_TIME_ROLE ( 'classification_date' ) ;
#65 = CONICAL_SURFACE ( 'NONE', #296, 1.200000000000000844, 0.7853981633974453924 ) ;
#66 = AXIS2_PLACEMENT_3D ( 'NONE', #136, #105, #232 ) ;
#67 = DIRECTION ( 'NONE',  ( 0.5000000000000036637, 0.0000000000000000000, 0.8660254037844365982 ) ) ;
#68 = ORIENTED_EDGE ( 'NONE', *, *, #391, .T. ) ;
#69 = EDGE_CURVE ( 'NONE', #231, #138, #380, .T. ) ;
#70 = CARTESIAN_POINT ( 'NONE',  ( -1.499999999999976907, 1.836970198721026483E-16, 5.866025403784438375 ) ) ;
#71 = LINE ( 'NONE', #37, #405 ) ;
#72 = ORIENTED_EDGE ( 'NONE', *, *, #69, .F. ) ;
#73 = DATE_AND_TIME ( #12, #7 ) ;
#74 = DIRECTION ( 'NONE',  ( -1.000000000000000000, 0.0000000000000000000, 3.491481338843133355E-15 ) ) ;
#75 = ORIENTED_EDGE ( 'NONE', *, *, #240, .T. ) ;
#76 = CC_DESIGN_SECURITY_CLASSIFICATION ( #221, ( #110 ) ) ;
#77 = ORIENTED_EDGE ( 'NONE', *, *, #333, .T. ) ;
#78 = APPROVAL ( #284, 'UNSPECIFIED' ) ;
#79 = LINE ( 'NONE', #55, #368 ) ;
#80 = PERSON_AND_ORGANIZATION ( #119, #298 ) ;
#81 = LOCAL_TIME ( 9, 38, 2.000000000000000000, #372 ) ;
#82 = CONICAL_SURFACE ( 'NONE', #300, 1.499999999999997113, 0.5235987755982995928 ) ;
#83 = DIRECTION ( 'NONE',  ( 0.0000000000000000000, 1.000000000000000000, 0.0000000000000000000 ) ) ;
#84 = AXIS2_PLACEMENT_3D ( 'NONE', #101, #227, #314 ) ;
#85 = EDGE_CURVE ( 'NONE', #61, #231, #79, .T. ) ;
#86 = DIRECTION ( 'NONE',  ( 3.491481338843133355E-15, 0.0000000000000000000, 1.000000000000000000 ) ) ;
#87 = DIRECTION ( 'NONE',  ( -3.491481338843133355E-15, 0.0000000000000000000, -1.000000000000000000 ) ) ;
#88 = AXIS2_PLACEMENT_3D ( 'NONE', #337, #215, #339 ) ;
#89 = CALENDAR_DATE ( 2021, 21, 9 ) ;
#90 = DIRECTION ( 'NONE',  ( 4.275831445896958607E-31, 1.000000000000000000, 1.224646799147353207E-16 ) ) ;
#91 = APPROVAL_DATE_TIME ( #33, #2 ) ;
#92 = CIRCLE ( 'NONE', #184, 1.499999999999997113 ) ;
#93 = DIRECTION ( 'NONE',  ( 7.703719777548943412E-31, 1.000000000000000000, 2.168404344971008868E-16 ) ) ;
#94 = ORIENTED_EDGE ( 'NONE', *, *, #406, .T. ) ;
#95 = DIRECTION ( 'NONE',  ( -7.703719777548943412E-31, -1.000000000000000000, -2.168404344971008868E-16 ) ) ;
#96 = EDGE_CURVE ( 'NONE', #389, #186, #353, .T. ) ;
#97 = VECTOR ( 'NONE', #161, 1000.000000000000000 ) ;
#98 = ORIENTED_EDGE ( 'NONE', *, *, #56, .F. ) ;
#99 = DIRECTION ( 'NONE',  ( -1.000000000000000000, 0.0000000000000000000, 3.469446951953620894E-15 ) ) ;
#100 = CALENDAR_DATE ( 2021, 21, 9 ) ;
#101 = CARTESIAN_POINT ( 'NONE',  ( 3.491481338843171221E-15, -1.224646799147366519E-16, 1.000000000000010880 ) ) ;
#102 = ADVANCED_FACE ( 'NONE', ( #151 ), #82, .T. ) ;
#103 = DIRECTION ( 'NONE',  ( 1.000000000000000000, 0.0000000000000000000, -3.469446951953620894E-15 ) ) ;
#104 = EDGE_LOOP ( 'NONE', ( #68, #207, #98, #42 ) ) ;
#105 = DIRECTION ( 'NONE',  ( -3.491481338843133355E-15, 0.0000000000000000000, -1.000000000000000000 ) ) ;
#106 = ORIENTED_EDGE ( 'NONE', *, *, #160, .F. ) ;
#107 = CARTESIAN_POINT ( 'NONE',  ( 2.048111823049310484E-14, 0.0000000000000000000, 5.866025403784433045 ) ) ;
#108 = AXIS2_PLACEMENT_3D ( 'NONE', #342, #357, #309 ) ;
#109 = ORIENTED_EDGE ( 'NONE', *, *, #160, .T. ) ;
#110 = PRODUCT_DEFINITION_FORMATION_WITH_SPECIFIED_SOURCE ( 'ANY', '', #325, .NOT_KNOWN. ) ;
#111 = DIRECTION ( 'NONE',  ( 0.0000000000000000000, 1.000000000000000000, 0.0000000000000000000 ) ) ;
#112 = ADVANCED_FACE ( 'NONE', ( #394 ), #20, .T. ) ;
#113 = EDGE_LOOP ( 'NONE', ( #133, #319, #178 ) ) ;
#114 = DIRECTION ( 'NONE',  ( -3.491481338843133355E-15, 1.224646799147353207E-16, -1.000000000000000000 ) ) ;
#115 = DIRECTION ( 'NONE',  ( -2.468850131082271655E-15, 0.7071067811865455743, -0.7071067811865493491 ) ) ;
#116 = ADVANCED_FACE ( 'NONE', ( #367 ), #330, .T. ) ;
#117 = DIRECTION ( 'NONE',  ( -1.000000000000000000, 0.0000000000000000000, 3.469446951953620894E-15 ) ) ;
#118 = DIRECTION ( 'NONE',  ( 0.0000000000000000000, 1.000000000000000000, 0.0000000000000000000 ) ) ;
#119 = PERSON ( 'UNSPECIFIED', 'UNSPECIFIED', 'UNSPECIFIED', ('UNSPECIFIED'), ('UNSPECIFIED'), ('UNSPECIFIED') ) ;
#120 = CARTESIAN_POINT ( 'NONE',  ( 1.000000000000017319, 0.0000000000000000000, 4.999999999999997335 ) ) ;
#121 = CARTESIAN_POINT ( 'NONE',  ( 1.328232484919367446E-13, -1.200000000000005285, 38.00000000000000000 ) ) ;
#122 = CIRCLE ( 'NONE', #188, 1.000000000000000000 ) ;
#123 = PERSON_AND_ORGANIZATION ( #119, #298 ) ;
#124 = SHAPE_DEFINITION_REPRESENTATION ( #150, #26 ) ;
#125 = VERTEX_POINT ( 'NONE', #212 ) ;
#126 = DIRECTION ( 'NONE',  ( -3.491481338843133355E-15, 1.224646799147353207E-16, -1.000000000000000000 ) ) ;
#127 = APPLICATION_CONTEXT ( 'configuration controlled 3d designs of mechanical parts and assemblies' ) ;
#128 =( GEOMETRIC_REPRESENTATION_CONTEXT ( 3 ) GLOBAL_UNCERTAINTY_ASSIGNED_CONTEXT ( ( #398 ) ) GLOBAL_UNIT_ASSIGNED_CONTEXT ( ( #17, #331, #358 ) ) REPRESENTATION_CONTEXT ( 'NONE', 'WORKASPACE' ) );
#129 = ORIENTED_EDGE ( 'NONE', *, *, #96, .T. ) ;
#130 = LINE ( 'NONE', #349, #305 ) ;
#131 = CALENDAR_DATE ( 2021, 21, 9 ) ;
#132 = EDGE_CURVE ( 'NONE', #264, #354, #122, .T. ) ;
#133 = ORIENTED_EDGE ( 'NONE', *, *, #377, .F. ) ;
#134 = DIRECTION ( 'NONE',  ( 2.468850131082278754E-15, -0.7071067811865437980, 0.7071067811865513475 ) ) ;
#135 = VECTOR ( 'NONE', #222, 1000.000000000000000 ) ;
#136 = CARTESIAN_POINT ( 'NONE',  ( 1.745740669421566993E-14, 0.0000000000000000000, 5.000000000000000888 ) ) ;
#137 = CARTESIAN_POINT ( 'NONE',  ( 0.0000000000000000000, 0.0000000000000000000, 0.0000000000000000000 ) ) ;
#138 = VERTEX_POINT ( 'NONE', #218 ) ;
#139 = CARTESIAN_POINT ( 'NONE',  ( 1.745740669421566993E-14, 0.0000000000000000000, 5.000000000000000888 ) ) ;
#140 = EDGE_LOOP ( 'NONE', ( #324, #387, #129, #109, #292 ) ) ;
#141 = PERSON_AND_ORGANIZATION ( #119, #298 ) ;
#142 = PRODUCT_RELATED_PRODUCT_CATEGORY ( 'detail', '', ( #325 ) ) ;
#143 = AXIS2_PLACEMENT_3D ( 'NONE', #172, #308, #187 ) ;
#144 = EDGE_LOOP ( 'NONE', ( #173, #251, #72, #234 ) ) ;
#145 = CLOSED_SHELL ( 'NONE', ( #365, #102, #112, #116, #293, #185, #159, #243, #194, #189 ) ) ;
#146 = ORIENTED_EDGE ( 'NONE', *, *, #96, .F. ) ;
#147 = MECHANICAL_CONTEXT ( 'NONE', #127, 'mechanical' ) ;
#148 = EDGE_CURVE ( 'NONE', #156, #175, #258, .T. ) ;
#149 = DIRECTION ( 'NONE',  ( 1.000000000000000000, 0.0000000000000000000, -3.469446951953620894E-15 ) ) ;
#150 = PRODUCT_DEFINITION_SHAPE ( 'NONE', 'NONE',  #47 ) ;
#151 = FACE_OUTER_BOUND ( 'NONE', #140, .T. ) ;
#152 = CARTESIAN_POINT ( 'NONE',  ( 2.048111823049310484E-14, 0.0000000000000000000, 5.866025403784433045 ) ) ;
#153 = PLANE ( 'NONE',  #88 ) ;
#154 = AXIS2_PLACEMENT_3D ( 'NONE', #50, #242, #336 ) ;
#155 = CIRCLE ( 'NONE', #316, 0.9999999999999993339 ) ;
#156 = VERTEX_POINT ( 'NONE', #348 ) ;
#157 = CIRCLE ( 'NONE', #210, 0.9999999999999997780 ) ;
#158 = PERSON_AND_ORGANIZATION_ROLE ( 'design_supplier' ) ;
#159 = ADVANCED_FACE ( 'NONE', ( #273 ), #200, .F. ) ;
#160 = EDGE_CURVE ( 'NONE', #186, #327, #92, .T. ) ;
#161 = DIRECTION ( 'NONE',  ( -3.491481338843133355E-15, 1.224646799147353207E-16, -1.000000000000000000 ) ) ;
#162 = PLANE ( 'NONE',  #143 ) ;
#163 = EDGE_LOOP ( 'NONE', ( #44, #205, #383, #307 ) ) ;
#164 = CARTESIAN_POINT ( 'NONE',  ( 0.0000000000000000000, 0.0000000000000000000, 0.0000000000000000000 ) ) ;
#165 = SECURITY_CLASSIFICATION_LEVEL ( 'unclassified' ) ;
#166 = AXIS2_PLACEMENT_3D ( 'NONE', #170, #59, #199 ) ;
#167 = APPROVAL_PERSON_ORGANIZATION ( #141, #2, #341 ) ;
#168 = EDGE_CURVE ( 'NONE', #21, #196, #71, .T. ) ;
#169 = CARTESIAN_POINT ( 'NONE',  ( 3.491481338843170432E-15, -1.000000000000000222, 1.000000000000010658 ) ) ;
#170 = CARTESIAN_POINT ( 'NONE',  ( 0.0000000000000000000, 0.0000000000000000000, 0.0000000000000000000 ) ) ;
#171 = EDGE_LOOP ( 'NONE', ( #237, #381 ) ) ;
#172 = CARTESIAN_POINT ( 'NONE',  ( 3.491481338843172009E-15, 7.498798913309283934E-33, 1.000000000000011102 ) ) ;
#173 = ORIENTED_EDGE ( 'NONE', *, *, #18, .T. ) ;
#174 = DIRECTION ( 'NONE',  ( -1.000000000000000000, 0.0000000000000000000, 3.469446951953620894E-15 ) ) ;
#175 = VERTEX_POINT ( 'NONE', #60 ) ;
#176 = DATE_AND_TIME ( #326, #266 ) ;
#177 = ORIENTED_EDGE ( 'NONE', *, *, #69, .T. ) ;
#178 = ORIENTED_EDGE ( 'NONE', *, *, #302, .T. ) ;
#179 = DIRECTION ( 'NONE',  ( 0.0000000000000000000, 0.0000000000000000000, 1.000000000000000000 ) ) ;
#180 = CONICAL_SURFACE ( 'NONE', #229, 1.000000000000000000, 0.7853981633974428389 ) ;
#181 = CARTESIAN_POINT ( 'NONE',  ( 1.326762908760390423E-13, 1.199999999999996181, 38.00000000000000000 ) ) ;
#182 = FACE_OUTER_BOUND ( 'NONE', #295, .T. ) ;
#183 = CARTESIAN_POINT ( 'NONE',  ( 3.491481338843130989E-15, 0.0000000000000000000, 0.9999999999999993339 ) ) ;
#184 = AXIS2_PLACEMENT_3D ( 'NONE', #250, #371, #5 ) ;
#185 = ADVANCED_FACE ( 'NONE', ( #216 ), #65, .T. ) ;
#186 = VERTEX_POINT ( 'NONE', #192 ) ;
#187 = DIRECTION ( 'NONE',  ( -4.275831445896958607E-31, -1.000000000000000000, -1.224646799147353207E-16 ) ) ;
#188 = AXIS2_PLACEMENT_3D ( 'NONE', #304, #279, #93 ) ;
#189 = ADVANCED_FACE ( 'NONE', ( #31 ), #162, .F. ) ;
#190 = PERSON_AND_ORGANIZATION ( #119, #298 ) ;
#191 = PERSON_AND_ORGANIZATION ( #119, #298 ) ;
#192 = CARTESIAN_POINT ( 'NONE',  ( 7.605498235243966508E-14, 1.499999999999997113, 5.866025403784433045 ) ) ;
#193 = DIRECTION ( 'NONE',  ( -3.491481338843133355E-15, 0.0000000000000000000, -1.000000000000000000 ) ) ;
#194 = ADVANCED_FACE ( 'NONE', ( #285 ), #8, .T. ) ;
#195 = VECTOR ( 'NONE', #62, 1000.000000000000114 ) ;
#196 = VERTEX_POINT ( 'NONE', #322 ) ;
#197 = FACE_OUTER_BOUND ( 'NONE', #104, .T. ) ;
#198 = AXIS2_PLACEMENT_3D ( 'NONE', #164, #126, #90 ) ;
#199 = DIRECTION ( 'NONE',  ( -1.000000000000000000, 0.0000000000000000000, 3.491481338843133355E-15 ) ) ;
#200 = PLANE ( 'NONE',  #108 ) ;
#201 = ORIENTED_EDGE ( 'NONE', *, *, #265, .F. ) ;
#202 = APPROVAL_DATE_TIME ( #73, #78 ) ;
#203 = CARTESIAN_POINT ( 'NONE',  ( -0.9999999999999995559, 0.0000000000000000000, 3.491481338843131778E-15 ) ) ;
#204 = CC_DESIGN_DATE_AND_TIME_ASSIGNMENT ( #176, #15, ( #47 ) ) ;
#205 = ORIENTED_EDGE ( 'NONE', *, *, #384, .T. ) ;
#206 = COORDINATED_UNIVERSAL_TIME_OFFSET ( 1, 0, .AHEAD. ) ;
#207 = ORIENTED_EDGE ( 'NONE', *, *, #168, .T. ) ;
#208 = DIRECTION ( 'NONE',  ( 0.0000000000000000000, 1.000000000000000000, 0.0000000000000000000 ) ) ;
#209 = AXIS2_PLACEMENT_3D ( 'NONE', #301, #23, #83 ) ;
#210 = AXIS2_PLACEMENT_3D ( 'NONE', #139, #386, #291 ) ;
#211 = DIRECTION ( 'NONE',  ( -3.491481338843133355E-15, 0.0000000000000000000, -1.000000000000000000 ) ) ;
#212 = CARTESIAN_POINT ( 'NONE',  ( 0.0000000000000000000, 0.0000000000000000000, 0.0000000000000000000 ) ) ;
#213 = EDGE_CURVE ( 'NONE', #299, #138, #38, .T. ) ;
#214 = DIRECTION ( 'NONE',  ( -3.491481338843133355E-15, 1.224646799147353207E-16, -1.000000000000000000 ) ) ;
#215 = DIRECTION ( 'NONE',  ( 3.491481338843133355E-15, -1.224646799147353207E-16, 1.000000000000000000 ) ) ;
#216 = FACE_OUTER_BOUND ( 'NONE', #163, .T. ) ;
#217 = EDGE_CURVE ( 'NONE', #21, #156, #157, .T. ) ;
#218 = CARTESIAN_POINT ( 'NONE',  ( 7.623867937231156585E-14, -1.500000000000005329, 37.69999999999999574 ) ) ;
#219 = CARTESIAN_POINT ( 'NONE',  ( 1.323178959930974653E-13, -1.200000000000005285, 38.00000000000000000 ) ) ;
#220 = COORDINATED_UNIVERSAL_TIME_OFFSET ( 1, 0, .AHEAD. ) ;
#221 = SECURITY_CLASSIFICATION ( '', '', #165 ) ;
#222 = DIRECTION ( 'NONE',  ( -3.491481338843133355E-15, 0.0000000000000000000, -1.000000000000000000 ) ) ;
#223 = ORIENTED_EDGE ( 'NONE', *, *, #377, .T. ) ;
#224 = FACE_OUTER_BOUND ( 'NONE', #10, .T. ) ;
#225 = APPROVAL_STATUS ( 'not_yet_approved' ) ;
#226 = DATE_AND_TIME ( #131, #81 ) ;
#227 = DIRECTION ( 'NONE',  ( -3.491481338843133355E-15, 1.224646799147353207E-16, -1.000000000000000000 ) ) ;
#228 = ORIENTED_EDGE ( 'NONE', *, *, #317, .F. ) ;
#229 = AXIS2_PLACEMENT_3D ( 'NONE', #364, #25, #53 ) ;
#230 = CARTESIAN_POINT ( 'NONE',  ( 3.491481338843130989E-15, 0.0000000000000000000, 0.9999999999999993339 ) ) ;
#231 = VERTEX_POINT ( 'NONE', #13 ) ;
#232 = DIRECTION ( 'NONE',  ( -1.000000000000000000, 0.0000000000000000000, 3.469446951953614978E-15 ) ) ;
#233 = DIRECTION ( 'NONE',  ( 0.0000000000000000000, 1.000000000000000000, 0.0000000000000000000 ) ) ;
#234 = ORIENTED_EDGE ( 'NONE', *, *, #85, .F. ) ;
#235 = APPLICATION_PROTOCOL_DEFINITION ( 'international standard', 'config_control_design', 1994, #127 ) ;
#236 = CIRCLE ( 'NONE', #246, 1.200000000000000844 ) ;
#237 = ORIENTED_EDGE ( 'NONE', *, *, #132, .F. ) ;
#238 = DIRECTION ( 'NONE',  ( -3.491481338843133355E-15, 0.0000000000000000000, -1.000000000000000000 ) ) ;
#239 = ORIENTED_EDGE ( 'NONE', *, *, #268, .F. ) ;
#240 = EDGE_CURVE ( 'NONE', #327, #6, #260, .T. ) ;
#241 = PERSON_AND_ORGANIZATION ( #119, #298 ) ;
#242 = DIRECTION ( 'NONE',  ( -3.491481338843133355E-15, 1.224646799147353207E-16, -1.000000000000000000 ) ) ;
#243 = ADVANCED_FACE ( 'NONE', ( #350 ), #39, .T. ) ;
#244 = CARTESIAN_POINT ( 'NONE',  ( 1.316288464743861212E-13, -4.616918432785521081E-15, 37.69999999999999574 ) ) ;
#245 = EDGE_LOOP ( 'NONE', ( #261, #29 ) ) ;
#246 = AXIS2_PLACEMENT_3D ( 'NONE', #275, #344, #111 ) ;
#247 = COORDINATED_UNIVERSAL_TIME_OFFSET ( 1, 0, .AHEAD. ) ;
#248 = AXIS2_PLACEMENT_3D ( 'NONE', #395, #114, #208 ) ;
#249 = PERSON_AND_ORGANIZATION_ROLE ( 'classification_officer' ) ;
#250 = CARTESIAN_POINT ( 'NONE',  ( 2.048111823049310484E-14, 0.0000000000000000000, 5.866025403784433045 ) ) ;
#251 = ORIENTED_EDGE ( 'NONE', *, *, #213, .T. ) ;
#252 = CARTESIAN_POINT ( 'NONE',  ( 3.491481338843170432E-15, -1.000000000000000222, 1.000000000000010658 ) ) ;
#253 = CC_DESIGN_PERSON_AND_ORGANIZATION_ASSIGNMENT ( #190, #58, ( #110 ) ) ;
#254 = CARTESIAN_POINT ( 'NONE',  ( 6.413747168845430903E-31, 1.499999999999998224, 1.836970198721027715E-16 ) ) ;
#255 = EDGE_LOOP ( 'NONE', ( #262, #360 ) ) ;
#256 = CYLINDRICAL_SURFACE ( 'NONE', #198, 1.499999999999998224 ) ;
#257 = VECTOR ( 'NONE', #134, 1000.000000000000000 ) ;
#258 = LINE ( 'NONE', #203, #135 ) ;
#259 = ORIENTED_EDGE ( 'NONE', *, *, #168, .F. ) ;
#260 = CIRCLE ( 'NONE', #347, 1.499999999999997113 ) ;
#261 = ORIENTED_EDGE ( 'NONE', *, *, #56, .T. ) ;
#262 = ORIENTED_EDGE ( 'NONE', *, *, #18, .F. ) ;
#263 = EDGE_LOOP ( 'NONE', ( #259, #375, #40, #228 ) ) ;
#264 = VERTEX_POINT ( 'NONE', #169 ) ;
#265 = EDGE_CURVE ( 'NONE', #231, #186, #1, .T. ) ;
#266 = LOCAL_TIME ( 9, 38, 2.000000000000000000, #206 ) ;
#267 = AXIS2_PLACEMENT_3D ( 'NONE', #63, #379, #103 ) ;
#268 = EDGE_CURVE ( 'NONE', #125, #354, #378, .T. ) ;
#269 = CARTESIAN_POINT ( 'NONE',  ( 1.326762908760390423E-13, -4.653657836759941941E-15, 38.00000000000000000 ) ) ;
#270 = VECTOR ( 'NONE', #67, 1000.000000000000114 ) ;
#271 = AXIS2_PLACEMENT_3D ( 'NONE', #244, #366, #303 ) ;
#272 = CC_DESIGN_DATE_AND_TIME_ASSIGNMENT ( #226, #64, ( #221 ) ) ;
#273 = FACE_OUTER_BOUND ( 'NONE', #255, .T. ) ;
#274 = CIRCLE ( 'NONE', #84, 1.000000000000000000 ) ;
#275 = CARTESIAN_POINT ( 'NONE',  ( 1.326762908760390423E-13, -4.653657836759941941E-15, 38.00000000000000000 ) ) ;
#276 = DATE_AND_TIME ( #89, #335 ) ;
#277 = DIRECTION ( 'NONE',  ( -3.491481338843133355E-15, 0.0000000000000000000, -1.000000000000000000 ) ) ;
#278 = FACE_OUTER_BOUND ( 'NONE', #113, .T. ) ;
#279 = DIRECTION ( 'NONE',  ( -3.491481338843133355E-15, 1.224646799147353207E-16, -1.000000000000000000 ) ) ;
#280 = CC_DESIGN_APPROVAL ( #78, ( #47 ) ) ;
#281 = DIRECTION ( 'NONE',  ( 2.555445736705828206E-15, 0.7071067811865435759, 0.7071067811865515695 ) ) ;
#282 = ADVANCED_FACE ( 'NONE', ( #278 ), #51, .T. ) ;
#283 = ORIENTED_EDGE ( 'NONE', *, *, #362, .T. ) ;
#284 = APPROVAL_STATUS ( 'not_yet_approved' ) ;
#285 = FACE_OUTER_BOUND ( 'NONE', #263, .T. ) ;
#286 = CC_DESIGN_PERSON_AND_ORGANIZATION_ASSIGNMENT ( #241, #41, ( #325 ) ) ;
#287 = CLOSED_SHELL ( 'NONE', ( #282, #27, #9 ) ) ;
#288 = ORIENTED_EDGE ( 'NONE', *, *, #406, .F. ) ;
#289 = AXIS2_PLACEMENT_3D ( 'NONE', #137, #382, #74 ) ;
#290 = COORDINATED_UNIVERSAL_TIME_OFFSET ( 1, 0, .AHEAD. ) ;
#291 = DIRECTION ( 'NONE',  ( -1.000000000000000000, 0.0000000000000000000, 3.469446951953614978E-15 ) ) ;
#292 = ORIENTED_EDGE ( 'NONE', *, *, #362, .F. ) ;
#293 = ADVANCED_FACE ( 'NONE', ( #224 ), #256, .T. ) ;
#294 = APPROVAL_ROLE ( '' ) ;
#295 = EDGE_LOOP ( 'NONE', ( #239, #223, #393 ) ) ;
#296 = AXIS2_PLACEMENT_3D ( 'NONE', #340, #57, #233 ) ;
#297 = CIRCLE ( 'NONE', #351, 1.499999999999997113 ) ;
#298 = ORGANIZATION ( 'UNSPECIFIED', 'UNSPECIFIED', '' ) ;
#299 = VERTEX_POINT ( 'NONE', #219 ) ;
#300 = AXIS2_PLACEMENT_3D ( 'NONE', #152, #86, #149 ) ;
#301 = CARTESIAN_POINT ( 'NONE',  ( 1.316288464743861212E-13, -4.616918432785521081E-15, 37.69999999999999574 ) ) ;
#302 = EDGE_CURVE ( 'NONE', #354, #264, #274, .T. ) ;
#303 = DIRECTION ( 'NONE',  ( 0.0000000000000000000, 1.000000000000000000, 0.0000000000000000000 ) ) ;
#304 = CARTESIAN_POINT ( 'NONE',  ( 3.491481338843171221E-15, -1.224646799147366519E-16, 1.000000000000010880 ) ) ;
#305 = VECTOR ( 'NONE', #36, 1000.000000000000000 ) ;
#306 = DIRECTION ( 'NONE',  ( -1.000000000000000000, 0.0000000000000000000, 3.469446951953616555E-15 ) ) ;
#307 = ORIENTED_EDGE ( 'NONE', *, *, #52, .F. ) ;
#308 = DIRECTION ( 'NONE',  ( 3.491481338843133355E-15, -1.224646799147353207E-16, 1.000000000000000000 ) ) ;
#309 = DIRECTION ( 'NONE',  ( 4.275831445896958607E-31, 1.000000000000000000, 1.224646799147353207E-16 ) ) ;
#310 = CIRCLE ( 'NONE', #370, 0.9999999999999993339 ) ;
#311 = ORIENTED_EDGE ( 'NONE', *, *, #346, .F. ) ;
#312 = DIRECTION ( 'NONE',  ( 3.491481338843133355E-15, -1.224646799147353207E-16, 1.000000000000000000 ) ) ;
#313 = LINE ( 'NONE', #252, #257 ) ;
#314 = DIRECTION ( 'NONE',  ( 7.703719777548943412E-31, 1.000000000000000000, 2.168404344971008868E-16 ) ) ;
#315 = PERSON_AND_ORGANIZATION ( #119, #298 ) ;
#316 = AXIS2_PLACEMENT_3D ( 'NONE', #183, #87, #306 ) ;
#317 = EDGE_CURVE ( 'NONE', #196, #175, #310, .T. ) ;
#318 = CYLINDRICAL_SURFACE ( 'NONE', #166, 0.9999999999999995559 ) ;
#319 = ORIENTED_EDGE ( 'NONE', *, *, #268, .T. ) ;
#320 = ORIENTED_EDGE ( 'NONE', *, *, #217, .F. ) ;
#321 = PERSON_AND_ORGANIZATION ( #119, #298 ) ;
#322 = CARTESIAN_POINT ( 'NONE',  ( 1.000000000000002887, 1.224646799147352468E-16, 0.9999999999999958922 ) ) ;
#323 = AXIS2_PLACEMENT_3D ( 'NONE', #329, #179, #46 ) ;
#324 = ORIENTED_EDGE ( 'NONE', *, *, #391, .F. ) ;
#325 = PRODUCT ( '956801', '956801', '', ( #147 ) ) ;
#326 = CALENDAR_DATE ( 2021, 21, 9 ) ;
#327 = VERTEX_POINT ( 'NONE', #34 ) ;
#328 = ORIENTED_EDGE ( 'NONE', *, *, #265, .T. ) ;
#329 = CARTESIAN_POINT ( 'NONE',  ( 0.0000000000000000000, 0.0000000000000000000, 0.0000000000000000000 ) ) ;
#330 = CYLINDRICAL_SURFACE ( 'NONE', #154, 1.499999999999998224 ) ;
#331 =( NAMED_UNIT ( * ) PLANE_ANGLE_UNIT ( ) SI_UNIT ( $, .RADIAN. ) );
#332 = CIRCLE ( 'NONE', #401, 1.200000000000000844 ) ;
#333 = EDGE_CURVE ( 'NONE', #138, #6, #130, .T. ) ;
#334 = VECTOR ( 'NONE', #28, 1000.000000000000000 ) ;
#335 = LOCAL_TIME ( 9, 38, 2.000000000000000000, #220 ) ;
#336 = DIRECTION ( 'NONE',  ( 4.275831445896958607E-31, 1.000000000000000000, 1.224646799147353207E-16 ) ) ;
#337 = CARTESIAN_POINT ( 'NONE',  ( 3.491481338843172009E-15, 7.498798913309283934E-33, 1.000000000000011102 ) ) ;
#338 = CARTESIAN_POINT ( 'NONE',  ( 2.048111823049310484E-14, 0.0000000000000000000, 5.866025403784433045 ) ) ;
#339 = DIRECTION ( 'NONE',  ( -4.275831445896958607E-31, -1.000000000000000000, -1.224646799147353207E-16 ) ) ;
#340 = CARTESIAN_POINT ( 'NONE',  ( 1.326762908760390423E-13, -4.653657836759941941E-15, 38.00000000000000000 ) ) ;
#341 = APPROVAL_ROLE ( '' ) ;
#342 = CARTESIAN_POINT ( 'NONE',  ( 1.326762908760390423E-13, 8.998558695971082698E-33, 38.00000000000000000 ) ) ;
#343 = APPROVAL_PERSON_ORGANIZATION ( #80, #78, #294 ) ;
#344 = DIRECTION ( 'NONE',  ( -3.491481338843133355E-15, 1.224646799147353207E-16, -1.000000000000000000 ) ) ;
#345 = APPROVAL_DATE_TIME ( #276, #402 ) ;
#346 = EDGE_CURVE ( 'NONE', #156, #389, #4, .T. ) ;
#347 = AXIS2_PLACEMENT_3D ( 'NONE', #107, #193, #99 ) ;
#348 = CARTESIAN_POINT ( 'NONE',  ( -0.9999999999999822364, 1.530808498934189845E-16, 5.000000000000004441 ) ) ;
#349 = CARTESIAN_POINT ( 'NONE',  ( 1.836970198721021306E-16, -1.499999999999998224, -1.836970198721033878E-16 ) ) ;
#350 = FACE_OUTER_BOUND ( 'NONE', #16, .T. ) ;
#351 = AXIS2_PLACEMENT_3D ( 'NONE', #385, #238, #174 ) ;
#352 = CARTESIAN_POINT ( 'NONE',  ( 1.500000000000017542, 0.0000000000000000000, 5.866025403784428605 ) ) ;
#353 = CIRCLE ( 'NONE', #30, 1.499999999999997113 ) ;
#354 = VERTEX_POINT ( 'NONE', #403 ) ;
#355 = AXIS2_PLACEMENT_3D ( 'NONE', #404, #312, #95 ) ;
#356 = DIRECTION ( 'NONE',  ( -3.491481338843133355E-15, 0.0000000000000000000, -1.000000000000000000 ) ) ;
#357 = DIRECTION ( 'NONE',  ( -3.491481338843133355E-15, 1.224646799147353207E-16, -1.000000000000000000 ) ) ;
#358 =( NAMED_UNIT ( * ) SI_UNIT ( $, .STERADIAN. ) SOLID_ANGLE_UNIT ( ) );
#359 = PERSON_AND_ORGANIZATION_ROLE ( 'creator' ) ;
#360 = ORIENTED_EDGE ( 'NONE', *, *, #384, .F. ) ;
#361 = CARTESIAN_POINT ( 'NONE',  ( 7.623867937231166682E-14, -1.499999999999997113, 5.866025403784433045 ) ) ;
#362 = EDGE_CURVE ( 'NONE', #21, #327, #407, .T. ) ;
#363 = APPLICATION_PROTOCOL_DEFINITION ( 'international standard', 'config_control_design', 1994, #45 ) ;
#364 = CARTESIAN_POINT ( 'NONE',  ( 3.491481338843171221E-15, -1.224646799147366519E-16, 1.000000000000010880 ) ) ;
#365 = ADVANCED_FACE ( 'NONE', ( #197 ), #318, .T. ) ;
#366 = DIRECTION ( 'NONE',  ( -3.491481338843133355E-15, 1.224646799147353207E-16, -1.000000000000000000 ) ) ;
#367 = FACE_OUTER_BOUND ( 'NONE', #400, .T. ) ;
#368 = VECTOR ( 'NONE', #115, 1000.000000000000114 ) ;
#369 = APPROVAL_STATUS ( 'not_yet_approved' ) ;
#370 = AXIS2_PLACEMENT_3D ( 'NONE', #230, #356, #32 ) ;
#371 = DIRECTION ( 'NONE',  ( -3.491481338843133355E-15, 0.0000000000000000000, -1.000000000000000000 ) ) ;
#372 = COORDINATED_UNIVERSAL_TIME_OFFSET ( 1, 0, .AHEAD. ) ;
#373 = CC_DESIGN_PERSON_AND_ORGANIZATION_ASSIGNMENT ( #191, #249, ( #221 ) ) ;
#374 = APPROVAL_ROLE ( '' ) ;
#375 = ORIENTED_EDGE ( 'NONE', *, *, #217, .T. ) ;
#376 = CARTESIAN_POINT ( 'NONE',  ( 3.613946018757907158E-15, 0.9999999999999997780, 1.000000000000011102 ) ) ;
#377 = EDGE_CURVE ( 'NONE', #125, #264, #313, .T. ) ;
#378 = LINE ( 'NONE', #376, #396 ) ;
#379 = DIRECTION ( 'NONE',  ( 3.491481338843133355E-15, 0.0000000000000000000, 1.000000000000000000 ) ) ;
#380 = CIRCLE ( 'NONE', #209, 1.500000000000000666 ) ;
#381 = ORIENTED_EDGE ( 'NONE', *, *, #302, .F. ) ;
#382 = DIRECTION ( 'NONE',  ( -3.491481338843133355E-15, 0.0000000000000000000, -1.000000000000000000 ) ) ;
#383 = ORIENTED_EDGE ( 'NONE', *, *, #85, .T. ) ;
#384 = EDGE_CURVE ( 'NONE', #299, #61, #236, .T. ) ;
#385 = CARTESIAN_POINT ( 'NONE',  ( 2.048111823049310484E-14, 0.0000000000000000000, 5.866025403784433045 ) ) ;
#386 = DIRECTION ( 'NONE',  ( -3.491481338843133355E-15, 0.0000000000000000000, -1.000000000000000000 ) ) ;
#387 = ORIENTED_EDGE ( 'NONE', *, *, #346, .T. ) ;
#388 = LOCAL_TIME ( 9, 38, 2.000000000000000000, #247 ) ;
#389 = VERTEX_POINT ( 'NONE', #43 ) ;
#390 = MANIFOLD_SOLID_BREP ( 'Corps-Déplacer/Copier1[2]', #287 ) ;
#391 = EDGE_CURVE ( 'NONE', #156, #21, #19, .T. ) ;
#392 = MANIFOLD_SOLID_BREP ( 'Corps-Déplacer/Copier1[1]', #145 ) ;
#393 = ORIENTED_EDGE ( 'NONE', *, *, #132, .T. ) ;
#394 = FACE_OUTER_BOUND ( 'NONE', #144, .T. ) ;
#395 = CARTESIAN_POINT ( 'NONE',  ( 1.326762908760390423E-13, -4.653657836759941941E-15, 38.00000000000000000 ) ) ;
#396 = VECTOR ( 'NONE', #281, 1000.000000000000000 ) ;
#397 = FACE_OUTER_BOUND ( 'NONE', #171, .T. ) ;
#398 = UNCERTAINTY_MEASURE_WITH_UNIT (LENGTH_MEASURE( 1.000000000000000082E-05 ), #17, 'distance_accuracy_value', 'NONE');
#399 = CC_DESIGN_PERSON_AND_ORGANIZATION_ASSIGNMENT ( #123, #158, ( #110 ) ) ;
#400 = EDGE_LOOP ( 'NONE', ( #177, #77, #14, #106, #201 ) ) ;
#401 = AXIS2_PLACEMENT_3D ( 'NONE', #269, #214, #118 ) ;
#402 = APPROVAL ( #225, 'UNSPECIFIED' ) ;
#403 = CARTESIAN_POINT ( 'NONE',  ( 3.613946018757907158E-15, 0.9999999999999997780, 1.000000000000011102 ) ) ;
#404 = CARTESIAN_POINT ( 'NONE',  ( 3.491481338843171221E-15, -1.224646799147366519E-16, 1.000000000000010880 ) ) ;
#405 = VECTOR ( 'NONE', #277, 1000.000000000000000 ) ;
#406 = EDGE_CURVE ( 'NONE', #6, #389, #297, .T. ) ;
#407 = LINE ( 'NONE', #352, #270 ) ;
ENDSEC;
END-ISO-10303-21;
