ISO-10303-21;
HEADER;
FILE_DESCRIPTION (( 'STEP AP203' ),
    '1' );
FILE_NAME ('956800.step',
    '2021-09-21T07:38:02',
    ( '' ),
    ( '' ),
    'SwSTEP 2.0',
    'SolidWorks 2019',
    '' );
FILE_SCHEMA (( 'CONFIG_CONTROL_DESIGN' ));
ENDSEC;

DATA;
#1 = VERTEX_POINT ( 'NONE', #36 ) ;
#2 = APPROVAL_ROLE ( '' ) ;
#3 = AXIS2_PLACEMENT_3D ( 'NONE', #289, #135, #194 ) ;
#4 = ORIENTED_EDGE ( 'NONE', *, *, #83, .F. ) ;
#5 = PERSON_AND_ORGANIZATION_ROLE ( 'classification_officer' ) ;
#6 = VERTEX_POINT ( 'NONE', #198 ) ;
#7 = CARTESIAN_POINT ( 'NONE',  ( 2.618611004132379993E-15, -1.084202172485516760E-16, 0.7500000000000085487 ) ) ;
#8 = EDGE_CURVE ( 'NONE', #54, #92, #400, .T. ) ;
#9 = AXIS2_PLACEMENT_3D ( 'NONE', #327, #267, #113 ) ;
#10 = DESIGN_CONTEXT ( 'detailed design', #88, 'design' ) ;
#11 = DIRECTION ( 'NONE',  ( -1.000000000000000000, 0.0000000000000000000, 3.469446951953617344E-15 ) ) ;
#12 = CYLINDRICAL_SURFACE ( 'NONE', #52, 1.499999999999998224 ) ;
#13 = EDGE_CURVE ( 'NONE', #1, #6, #313, .T. ) ;
#14 = AXIS2_PLACEMENT_3D ( 'NONE', #15, #211, #149 ) ;
#15 = CARTESIAN_POINT ( 'NONE',  ( 2.618611004132379993E-15, -9.184850993605254441E-17, 0.7500000000000085487 ) ) ;
#16 = DIRECTION ( 'NONE',  ( -3.491481338843133355E-15, 1.224646799147353207E-16, -1.000000000000000000 ) ) ;
#17 = DIRECTION ( 'NONE',  ( -3.491481338843133355E-15, 0.0000000000000000000, -1.000000000000000000 ) ) ;
#18 = AXIS2_PLACEMENT_3D ( 'NONE', #334, #51, #187 ) ;
#19 = DIRECTION ( 'NONE',  ( 0.0000000000000000000, 1.000000000000000000, 0.0000000000000000000 ) ) ;
#20 = DIRECTION ( 'NONE',  ( -3.491481338843133355E-15, 0.0000000000000000000, -1.000000000000000000 ) ) ;
#21 = EDGE_CURVE ( 'NONE', #337, #65, #152, .T. ) ;
#22 = AXIS2_PLACEMENT_3D ( 'NONE', #361, #303, #19 ) ;
#23 = APPROVAL_ROLE ( '' ) ;
#24 = CARTESIAN_POINT ( 'NONE',  ( 1.326762908760390423E-13, -4.653657836759941941E-15, 38.00000000000000000 ) ) ;
#25 = VECTOR ( 'NONE', #395, 1000.000000000000000 ) ;
#26 = ORIENTED_EDGE ( 'NONE', *, *, #355, .T. ) ;
#27 = PERSON_AND_ORGANIZATION ( #264, #294 ) ;
#28 = DIRECTION ( 'NONE',  ( 3.491481338843133355E-15, -1.224646799147353207E-16, 1.000000000000000000 ) ) ;
#29 = ORIENTED_EDGE ( 'NONE', *, *, #71, .F. ) ;
#30 = CARTESIAN_POINT ( 'NONE',  ( -1.499999999999975797, 1.836970198721026976E-16, 6.299038105676658006 ) ) ;
#31 = ORIENTED_EDGE ( 'NONE', *, *, #13, .T. ) ;
#32 = COORDINATED_UNIVERSAL_TIME_OFFSET ( 1, 0, .AHEAD. ) ;
#33 = AXIS2_PLACEMENT_3D ( 'NONE', #300, #16, #150 ) ;
#34 = DIRECTION ( 'NONE',  ( -3.491481338843133355E-15, 0.0000000000000000000, -1.000000000000000000 ) ) ;
#35 = CIRCLE ( 'NONE', #215, 0.7499999999999993339 ) ;
#36 = CARTESIAN_POINT ( 'NONE',  ( 1.326762908760390423E-13, 1.199999999999996181, 38.00000000000000000 ) ) ;
#37 = APPLICATION_PROTOCOL_DEFINITION ( 'international standard', 'config_control_design', 1994, #88 ) ;
#38 = ORIENTED_EDGE ( 'NONE', *, *, #268, .F. ) ;
#39 = DIRECTION ( 'NONE',  ( -3.491481338843133355E-15, 1.224646799147353207E-16, -1.000000000000000000 ) ) ;
#40 = CARTESIAN_POINT ( 'NONE',  ( 0.0000000000000000000, 0.0000000000000000000, 0.0000000000000000000 ) ) ;
#41 = CARTESIAN_POINT ( 'NONE',  ( 1.326762908760390423E-13, 8.998558695971082698E-33, 38.00000000000000000 ) ) ;
#42 = CYLINDRICAL_SURFACE ( 'NONE', #331, 1.499999999999998224 ) ;
#43 = DIRECTION ( 'NONE',  ( -3.491481338843133355E-15, 1.224646799147353207E-16, -1.000000000000000000 ) ) ;
#44 = APPROVAL_PERSON_ORGANIZATION ( #314, #366, #169 ) ;
#45 = DIRECTION ( 'NONE',  ( -1.000000000000000000, 0.0000000000000000000, 3.469446951953619711E-15 ) ) ;
#46 = EDGE_CURVE ( 'NONE', #283, #170, #196, .T. ) ;
#47 = PRODUCT_DEFINITION_SHAPE ( 'NONE', 'NONE',  #326 ) ;
#48 = EDGE_CURVE ( 'NONE', #306, #54, #76, .T. ) ;
#49 = ORIENTED_EDGE ( 'NONE', *, *, #291, .T. ) ;
#50 = LOCAL_TIME ( 9, 38, 2.000000000000000000, #290 ) ;
#51 = DIRECTION ( 'NONE',  ( 0.0000000000000000000, 0.0000000000000000000, 1.000000000000000000 ) ) ;
#52 = AXIS2_PLACEMENT_3D ( 'NONE', #40, #178, #388 ) ;
#53 = ADVANCED_FACE ( 'NONE', ( #147 ), #12, .T. ) ;
#54 = VERTEX_POINT ( 'NONE', #389 ) ;
#55 = ADVANCED_FACE ( 'NONE', ( #146 ), #248, .T. ) ;
#56 = ORIENTED_EDGE ( 'NONE', *, *, #324, .F. ) ;
#57 = CALENDAR_DATE ( 2021, 21, 9 ) ;
#58 = ORIENTED_EDGE ( 'NONE', *, *, #359, .T. ) ;
#59 = COORDINATED_UNIVERSAL_TIME_OFFSET ( 1, 0, .AHEAD. ) ;
#60 = CARTESIAN_POINT ( 'NONE',  ( 2.618611004132379599E-15, -0.7500000000000004441, 0.7500000000000084377 ) ) ;
#61 = ORIENTED_EDGE ( 'NONE', *, *, #268, .T. ) ;
#62 = MECHANICAL_CONTEXT ( 'NONE', #129, 'mechanical' ) ;
#63 = DIRECTION ( 'NONE',  ( 3.491481338843133355E-15, 0.0000000000000000000, 1.000000000000000000 ) ) ;
#64 = AXIS2_PLACEMENT_3D ( 'NONE', #24, #286, #97 ) ;
#65 = VERTEX_POINT ( 'NONE', #79 ) ;
#66 = DATE_AND_TIME ( #133, #104 ) ;
#67 = SECURITY_CLASSIFICATION ( '', '', #162 ) ;
#68 = FACE_OUTER_BOUND ( 'NONE', #141, .T. ) ;
#69 = VECTOR ( 'NONE', #43, 1000.000000000000000 ) ;
#70 = ORIENTED_EDGE ( 'NONE', *, *, #138, .F. ) ;
#71 = EDGE_CURVE ( 'NONE', #306, #136, #212, .T. ) ;
#72 = CARTESIAN_POINT ( 'NONE',  ( 2.618611004132379993E-15, -9.184850993605254441E-17, 0.7500000000000085487 ) ) ;
#73 = ORIENTED_EDGE ( 'NONE', *, *, #148, .T. ) ;
#74 = PLANE ( 'NONE',  #124 ) ;
#75 = CIRCLE ( 'NONE', #348, 0.7499999999999991118 ) ;
#76 = CIRCLE ( 'NONE', #134, 1.500000000000000666 ) ;
#77 = DIRECTION ( 'NONE',  ( -4.275831445896958607E-31, -1.000000000000000000, -1.224646799147353207E-16 ) ) ;
#78 = APPROVAL ( #166, 'UNSPECIFIED' ) ;
#79 = CARTESIAN_POINT ( 'NONE',  ( 0.7500000000000019984, 9.184850993605139809E-17, 0.7499999999999967804 ) ) ;
#80 = AXIS2_PLACEMENT_3D ( 'NONE', #120, #269, #223 ) ;
#81 = CONICAL_SURFACE ( 'NONE', #33, 1.200000000000000844, 0.7853981633974453924 ) ;
#82 = ADVANCED_FACE ( 'NONE', ( #179 ), #328, .F. ) ;
#83 = EDGE_CURVE ( 'NONE', #65, #337, #35, .T. ) ;
#84 = ORIENTED_EDGE ( 'NONE', *, *, #21, .T. ) ;
#85 = LOCAL_TIME ( 9, 38, 2.000000000000000000, #259 ) ;
#86 = VERTEX_POINT ( 'NONE', #106 ) ;
#87 = LINE ( 'NONE', #189, #121 ) ;
#88 = APPLICATION_CONTEXT ( 'configuration controlled 3d designs of mechanical parts and assemblies' ) ;
#89 = DIRECTION ( 'NONE',  ( 0.5000000000000036637, 0.0000000000000000000, 0.8660254037844365982 ) ) ;
#90 = FACE_OUTER_BOUND ( 'NONE', #174, .T. ) ;
#91 = CARTESIAN_POINT ( 'NONE',  ( 0.0000000000000000000, 0.0000000000000000000, 0.0000000000000000000 ) ) ;
#92 = VERTEX_POINT ( 'NONE', #295 ) ;
#93 = CIRCLE ( 'NONE', #403, 1.499999999999997558 ) ;
#94 = ORIENTED_EDGE ( 'NONE', *, *, #372, .T. ) ;
#95 = ADVANCED_FACE ( 'NONE', ( #293 ), #180, .F. ) ;
#96 = ADVANCED_FACE ( 'NONE', ( #354 ), #74, .T. ) ;
#97 = DIRECTION ( 'NONE',  ( 0.0000000000000000000, 1.000000000000000000, 0.0000000000000000000 ) ) ;
#98 = CARTESIAN_POINT ( 'NONE',  ( 2.199297399863183491E-14, 0.0000000000000000000, 6.299038105676652677 ) ) ;
#99 = ORIENTED_EDGE ( 'NONE', *, *, #48, .T. ) ;
#100 = PERSON_AND_ORGANIZATION ( #264, #294 ) ;
#101 = AXIS2_PLACEMENT_3D ( 'NONE', #72, #352, #234 ) ;
#102 = VERTEX_POINT ( 'NONE', #238 ) ;
#103 = PERSON_AND_ORGANIZATION ( #264, #294 ) ;
#104 = LOCAL_TIME ( 9, 38, 2.000000000000000000, #32 ) ;
#105 = CARTESIAN_POINT ( 'NONE',  ( 2.618611004132379993E-15, -9.184850993605254441E-17, 0.7500000000000085487 ) ) ;
#106 = CARTESIAN_POINT ( 'NONE',  ( -1.499999999999975797, 1.836970198721026976E-16, 6.299038105676658006 ) ) ;
#107 = AXIS2_PLACEMENT_3D ( 'NONE', #319, #63, #343 ) ;
#108 = DIRECTION ( 'NONE',  ( -3.491481338843133355E-15, 1.224646799147353207E-16, -1.000000000000000000 ) ) ;
#109 = PRODUCT_DEFINITION_FORMATION_WITH_SPECIFIED_SOURCE ( 'ANY', '', #207, .NOT_KNOWN. ) ;
#110 = ADVANCED_FACE ( 'NONE', ( #329 ), #42, .T. ) ;
#111 = DIRECTION ( 'NONE',  ( 3.491481338843133355E-15, -1.224646799147353207E-16, 1.000000000000000000 ) ) ;
#112 = DIRECTION ( 'NONE',  ( 0.0000000000000000000, 1.000000000000000000, 0.0000000000000000000 ) ) ;
#113 = DIRECTION ( 'NONE',  ( 1.000000000000000000, 0.0000000000000000000, -3.469446951953619711E-15 ) ) ;
#114 = EDGE_CURVE ( 'NONE', #136, #86, #396, .T. ) ;
#115 =( LENGTH_UNIT ( ) NAMED_UNIT ( * ) SI_UNIT ( .MILLI., .METRE. ) );
#116 = ORIENTED_EDGE ( 'NONE', *, *, #164, .T. ) ;
#117 = AXIS2_PLACEMENT_3D ( 'NONE', #227, #263, #358 ) ;
#118 = LINE ( 'NONE', #305, #208 ) ;
#119 = EDGE_LOOP ( 'NONE', ( #38, #160, #391, #58, #320 ) ) ;
#120 = CARTESIAN_POINT ( 'NONE',  ( 0.0000000000000000000, 0.0000000000000000000, 0.0000000000000000000 ) ) ;
#121 = VECTOR ( 'NONE', #307, 1000.000000000000000 ) ;
#122 = CONICAL_SURFACE ( 'NONE', #107, 1.499999999999997558, 0.5235987755982995928 ) ;
#123 = CARTESIAN_POINT ( 'NONE',  ( 1.745740669421566678E-14, 0.0000000000000000000, 5.000000000000000000 ) ) ;
#124 = AXIS2_PLACEMENT_3D ( 'NONE', #297, #111, #77 ) ;
#125 = ORIENTED_EDGE ( 'NONE', *, *, #381, .T. ) ;
#126 = DIRECTION ( 'NONE',  ( -3.491481338843133355E-15, 0.0000000000000000000, -1.000000000000000000 ) ) ;
#127 = CARTESIAN_POINT ( 'NONE',  ( 6.413747168845430903E-31, 1.499999999999998224, 1.836970198721027715E-16 ) ) ;
#128 = CALENDAR_DATE ( 2021, 21, 9 ) ;
#129 = APPLICATION_CONTEXT ( 'configuration controlled 3d designs of mechanical parts and assemblies' ) ;
#130 = DIRECTION ( 'NONE',  ( 2.555445736705828206E-15, 0.7071067811865435759, 0.7071067811865515695 ) ) ;
#131 = AXIS2_PLACEMENT_3D ( 'NONE', #338, #154, #45 ) ;
#132 = ORIENTED_EDGE ( 'NONE', *, *, #359, .F. ) ;
#133 = CALENDAR_DATE ( 2021, 21, 9 ) ;
#134 = AXIS2_PLACEMENT_3D ( 'NONE', #240, #108, #112 ) ;
#135 = DIRECTION ( 'NONE',  ( -3.491481338843133355E-15, 0.0000000000000000000, -1.000000000000000000 ) ) ;
#136 = VERTEX_POINT ( 'NONE', #394 ) ;
#137 = CALENDAR_DATE ( 2021, 21, 9 ) ;
#138 = EDGE_CURVE ( 'NONE', #229, #102, #392, .T. ) ;
#139 = DIRECTION ( 'NONE',  ( -5.135813185032626898E-31, -1.000000000000000000, -1.445602896647338670E-16 ) ) ;
#140 = VECTOR ( 'NONE', #402, 1000.000000000000114 ) ;
#141 = EDGE_LOOP ( 'NONE', ( #344, #190, #304 ) ) ;
#142 = CC_DESIGN_DATE_AND_TIME_ASSIGNMENT ( #278, #345, ( #67 ) ) ;
#143 = AXIS2_PLACEMENT_3D ( 'NONE', #315, #322, #201 ) ;
#144 = DIRECTION ( 'NONE',  ( 3.491481338843133355E-15, -1.224646799147353207E-16, 1.000000000000000000 ) ) ;
#145 = VECTOR ( 'NONE', #130, 1000.000000000000000 ) ;
#146 = FACE_OUTER_BOUND ( 'NONE', #119, .T. ) ;
#147 = FACE_OUTER_BOUND ( 'NONE', #153, .T. ) ;
#148 = EDGE_CURVE ( 'NONE', #235, #170, #244, .T. ) ;
#149 = DIRECTION ( 'NONE',  ( 5.135813185032626898E-31, 1.000000000000000000, 1.445602896647338670E-16 ) ) ;
#150 = DIRECTION ( 'NONE',  ( 0.0000000000000000000, 1.000000000000000000, 0.0000000000000000000 ) ) ;
#151 = DIRECTION ( 'NONE',  ( -5.135813185032626898E-31, -1.000000000000000000, -1.445602896647338670E-16 ) ) ;
#152 = CIRCLE ( 'NONE', #369, 0.7499999999999993339 ) ;
#153 = EDGE_LOOP ( 'NONE', ( #29, #99, #377, #312, #333 ) ) ;
#154 = DIRECTION ( 'NONE',  ( -3.491481338843133355E-15, 0.0000000000000000000, -1.000000000000000000 ) ) ;
#155 = ORIENTED_EDGE ( 'NONE', *, *, #199, .F. ) ;
#156 = FACE_OUTER_BOUND ( 'NONE', #309, .T. ) ;
#157 = CIRCLE ( 'NONE', #64, 1.200000000000000844 ) ;
#158 = CARTESIAN_POINT ( 'NONE',  ( 1.500000000000019540, 0.0000000000000000000, 6.299038105676648236 ) ) ;
#159 = CONICAL_SURFACE ( 'NONE', #22, 1.200000000000000844, 0.7853981633974453924 ) ;
#160 = ORIENTED_EDGE ( 'NONE', *, *, #381, .F. ) ;
#161 = CC_DESIGN_SECURITY_CLASSIFICATION ( #67, ( #109 ) ) ;
#162 = SECURITY_CLASSIFICATION_LEVEL ( 'unclassified' ) ;
#163 = AXIS2_PLACEMENT_3D ( 'NONE', #216, #20, #270 ) ;
#164 = EDGE_CURVE ( 'NONE', #205, #229, #262, .T. ) ;
#165 = EDGE_LOOP ( 'NONE', ( #197, #233 ) ) ;
#166 = APPROVAL_STATUS ( 'not_yet_approved' ) ;
#167 = FACE_OUTER_BOUND ( 'NONE', #374, .T. ) ;
#168 = ORIENTED_EDGE ( 'NONE', *, *, #301, .F. ) ;
#169 = APPROVAL_ROLE ( '' ) ;
#170 = VERTEX_POINT ( 'NONE', #60 ) ;
#171 = ADVANCED_FACE ( 'NONE', ( #367 ), #226, .T. ) ;
#172 = CLOSED_SHELL ( 'NONE', ( #346, #261, #387, #110, #53, #406, #82, #55, #171, #95 ) ) ;
#173 = CARTESIAN_POINT ( 'NONE',  ( 2.618611004132379993E-15, -9.184850993605254441E-17, 0.7500000000000085487 ) ) ;
#174 = EDGE_LOOP ( 'NONE', ( #31, #26, #168, #177 ) ) ;
#175 = PERSON_AND_ORGANIZATION ( #264, #294 ) ;
#176 = CARTESIAN_POINT ( 'NONE',  ( -0.7499999999999992228, 0.0000000000000000000, 2.618611004132347255E-15 ) ) ;
#177 = ORIENTED_EDGE ( 'NONE', *, *, #291, .F. ) ;
#178 = DIRECTION ( 'NONE',  ( -3.491481338843133355E-15, 1.224646799147353207E-16, -1.000000000000000000 ) ) ;
#179 = FACE_OUTER_BOUND ( 'NONE', #165, .T. ) ;
#180 = PLANE ( 'NONE',  #277 ) ;
#181 = CARTESIAN_POINT ( 'NONE',  ( 0.0000000000000000000, 0.0000000000000000000, 0.0000000000000000000 ) ) ;
#182 = AXIS2_PLACEMENT_3D ( 'NONE', #41, #39, #360 ) ;
#183 = FACE_OUTER_BOUND ( 'NONE', #231, .T. ) ;
#184 = CC_DESIGN_PERSON_AND_ORGANIZATION_ASSIGNMENT ( #103, #378, ( #109 ) ) ;
#185 = CIRCLE ( 'NONE', #192, 1.500000000000000666 ) ;
#186 = APPLICATION_PROTOCOL_DEFINITION ( 'international standard', 'config_control_design', 1994, #129 ) ;
#187 = DIRECTION ( 'NONE',  ( 1.000000000000000000, 0.0000000000000000000, 0.0000000000000000000 ) ) ;
#188 = AXIS2_PLACEMENT_3D ( 'NONE', #173, #28, #139 ) ;
#189 = CARTESIAN_POINT ( 'NONE',  ( 0.7499999999999992228, 9.184850993605139809E-17, -2.618611004132347255E-15 ) ) ;
#190 = ORIENTED_EDGE ( 'NONE', *, *, #296, .T. ) ;
#191 = PERSON_AND_ORGANIZATION ( #264, #294 ) ;
#192 = AXIS2_PLACEMENT_3D ( 'NONE', #204, #339, #407 ) ;
#193 = ADVANCED_FACE ( 'NONE', ( #68 ), #209, .T. ) ;
#194 = DIRECTION ( 'NONE',  ( -1.000000000000000000, 0.0000000000000000000, 3.469446951953619711E-15 ) ) ;
#195 = PERSON_AND_ORGANIZATION ( #264, #294 ) ;
#196 = CIRCLE ( 'NONE', #14, 0.7500000000000003331 ) ;
#197 = ORIENTED_EDGE ( 'NONE', *, *, #13, .F. ) ;
#198 = CARTESIAN_POINT ( 'NONE',  ( 1.323178959930974653E-13, -1.200000000000005285, 38.00000000000000000 ) ) ;
#199 = EDGE_CURVE ( 'NONE', #92, #102, #371, .T. ) ;
#200 = APPROVAL_STATUS ( 'not_yet_approved' ) ;
#201 = DIRECTION ( 'NONE',  ( -1.000000000000000000, 0.0000000000000000000, 3.469446951953618133E-15 ) ) ;
#202 = EDGE_LOOP ( 'NONE', ( #245, #219, #132, #155, #254 ) ) ;
#203 = APPROVAL_DATE_TIME ( #250, #382 ) ;
#204 = CARTESIAN_POINT ( 'NONE',  ( 1.316288464743861212E-13, -4.616918432785521081E-15, 37.69999999999999574 ) ) ;
#205 = VERTEX_POINT ( 'NONE', #311 ) ;
#206 = DIRECTION ( 'NONE',  ( -1.000000000000000000, 0.0000000000000000000, 3.469446951953617344E-15 ) ) ;
#207 = PRODUCT ( '956800', '956800', '', ( #62 ) ) ;
#208 = VECTOR ( 'NONE', #218, 1000.000000000000000 ) ;
#209 = CONICAL_SURFACE ( 'NONE', #188, 0.7500000000000003331, 0.7853981633974428389 ) ;
#210 = DIRECTION ( 'NONE',  ( -3.491481338843133355E-15, 0.0000000000000000000, -1.000000000000000000 ) ) ;
#211 = DIRECTION ( 'NONE',  ( -3.491481338843133355E-15, 1.224646799147353207E-16, -1.000000000000000000 ) ) ;
#212 = LINE ( 'NONE', #384, #69 ) ;
#213 = AXIS2_PLACEMENT_3D ( 'NONE', #105, #260, #151 ) ;
#214 = CC_DESIGN_APPROVAL ( #78, ( #67 ) ) ;
#215 = AXIS2_PLACEMENT_3D ( 'NONE', #356, #210, #206 ) ;
#216 = CARTESIAN_POINT ( 'NONE',  ( 2.199297399863183491E-14, 0.0000000000000000000, 6.299038105676652677 ) ) ;
#217 = ORIENTED_EDGE ( 'NONE', *, *, #83, .T. ) ;
#218 = DIRECTION ( 'NONE',  ( -2.382254525458723780E-15, -0.7071067811865453523, -0.7071067811865496822 ) ) ;
#219 = ORIENTED_EDGE ( 'NONE', *, *, #71, .T. ) ;
#220 = CARTESIAN_POINT ( 'NONE',  ( 2.618611004132379599E-15, -0.7500000000000004441, 0.7500000000000084377 ) ) ;
#221 = ORIENTED_EDGE ( 'NONE', *, *, #21, .F. ) ;
#222 = EDGE_CURVE ( 'NONE', #205, #337, #365, .T. ) ;
#223 = DIRECTION ( 'NONE',  ( -1.000000000000000000, 0.0000000000000000000, 3.491481338843133355E-15 ) ) ;
#224 = CARTESIAN_POINT ( 'NONE',  ( 2.710459514068431749E-15, 0.7500000000000002220, 0.7500000000000086597 ) ) ;
#225 = ORIENTED_EDGE ( 'NONE', *, *, #48, .F. ) ;
#226 = CYLINDRICAL_SURFACE ( 'NONE', #385, 0.7499999999999992228 ) ;
#227 = CARTESIAN_POINT ( 'NONE',  ( 1.326762908760390423E-13, -4.653657836759941941E-15, 38.00000000000000000 ) ) ;
#228 = PERSON_AND_ORGANIZATION_ROLE ( 'creator' ) ;
#229 = VERTEX_POINT ( 'NONE', #376 ) ;
#230 = DIRECTION ( 'NONE',  ( -1.000000000000000000, 0.0000000000000000000, 3.469446951953619711E-15 ) ) ;
#231 = EDGE_LOOP ( 'NONE', ( #362, #404, #49, #225 ) ) ;
#232 = CARTESIAN_POINT ( 'NONE',  ( 0.0000000000000000000, 0.0000000000000000000, 0.0000000000000000000 ) ) ;
#233 = ORIENTED_EDGE ( 'NONE', *, *, #273, .F. ) ;
#234 = DIRECTION ( 'NONE',  ( 5.135813185032626898E-31, 1.000000000000000000, 1.445602896647338670E-16 ) ) ;
#235 = VERTEX_POINT ( 'NONE', #91 ) ;
#236 = DIRECTION ( 'NONE',  ( -4.275831445896958607E-31, -1.000000000000000000, -1.224646799147353207E-16 ) ) ;
#237 = CIRCLE ( 'NONE', #131, 1.499999999999997558 ) ;
#238 = CARTESIAN_POINT ( 'NONE',  ( 1.500000000000019540, 0.0000000000000000000, 6.299038105676648236 ) ) ;
#239 = DIRECTION ( 'NONE',  ( -3.491481338843133355E-15, 0.0000000000000000000, -1.000000000000000000 ) ) ;
#240 = CARTESIAN_POINT ( 'NONE',  ( 1.316288464743861212E-13, -4.616918432785521081E-15, 37.69999999999999574 ) ) ;
#241 =( GEOMETRIC_REPRESENTATION_CONTEXT ( 3 ) GLOBAL_UNCERTAINTY_ASSIGNED_CONTEXT ( ( #393 ) ) GLOBAL_UNIT_ASSIGNED_CONTEXT ( ( #115, #332, #272 ) ) REPRESENTATION_CONTEXT ( 'NONE', 'WORKASPACE' ) );
#242 = DIRECTION ( 'NONE',  ( 4.275831445896958607E-31, 1.000000000000000000, 1.224646799147353207E-16 ) ) ;
#243 = CC_DESIGN_PERSON_AND_ORGANIZATION_ASSIGNMENT ( #100, #5, ( #67 ) ) ;
#244 = LINE ( 'NONE', #220, #25 ) ;
#245 = ORIENTED_EDGE ( 'NONE', *, *, #301, .T. ) ;
#246 = APPROVAL_PERSON_ORGANIZATION ( #27, #78, #2 ) ;
#247 = ORIENTED_EDGE ( 'NONE', *, *, #324, .T. ) ;
#248 = CONICAL_SURFACE ( 'NONE', #9, 1.499999999999997558, 0.5235987755982995928 ) ;
#249 = DIRECTION ( 'NONE',  ( -1.000000000000000000, 0.0000000000000000000, 3.469446951953618133E-15 ) ) ;
#250 = DATE_AND_TIME ( #318, #85 ) ;
#251 = CC_DESIGN_PERSON_AND_ORGANIZATION_ASSIGNMENT ( #347, #228, ( #326 ) ) ;
#252 = DIRECTION ( 'NONE',  ( -3.491481338843133355E-15, 1.224646799147353207E-16, -1.000000000000000000 ) ) ;
#253 = DIRECTION ( 'NONE',  ( -0.4999999999999976130, 6.123233995736774664E-17, 0.8660254037844399289 ) ) ;
#254 = ORIENTED_EDGE ( 'NONE', *, *, #8, .F. ) ;
#255 = APPROVAL_DATE_TIME ( #66, #366 ) ;
#256 = CARTESIAN_POINT ( 'NONE',  ( 7.699460725638092300E-14, -1.500000000000005329, 37.69999999999999574 ) ) ;
#257 = DIRECTION ( 'NONE',  ( -3.491481338843133355E-15, 0.0000000000000000000, -1.000000000000000000 ) ) ;
#258 = ORIENTED_EDGE ( 'NONE', *, *, #222, .T. ) ;
#259 = COORDINATED_UNIVERSAL_TIME_OFFSET ( 1, 0, .AHEAD. ) ;
#260 = DIRECTION ( 'NONE',  ( 3.491481338843133355E-15, -1.224646799147353207E-16, 1.000000000000000000 ) ) ;
#261 = ADVANCED_FACE ( 'NONE', ( #167 ), #122, .T. ) ;
#262 = CIRCLE ( 'NONE', #143, 0.7499999999999991118 ) ;
#263 = DIRECTION ( 'NONE',  ( -3.491481338843133355E-15, 1.224646799147353207E-16, -1.000000000000000000 ) ) ;
#264 = PERSON ( 'UNSPECIFIED', 'UNSPECIFIED', 'UNSPECIFIED', ('UNSPECIFIED'), ('UNSPECIFIED'), ('UNSPECIFIED') ) ;
#265 = APPROVAL_PERSON_ORGANIZATION ( #175, #382, #23 ) ;
#266 = CC_DESIGN_PERSON_AND_ORGANIZATION_ASSIGNMENT ( #195, #375, ( #109 ) ) ;
#267 = DIRECTION ( 'NONE',  ( 3.491481338843133355E-15, 0.0000000000000000000, 1.000000000000000000 ) ) ;
#268 = EDGE_CURVE ( 'NONE', #205, #86, #282, .T. ) ;
#269 = DIRECTION ( 'NONE',  ( -3.491481338843133355E-15, 0.0000000000000000000, -1.000000000000000000 ) ) ;
#270 = DIRECTION ( 'NONE',  ( -1.000000000000000000, 0.0000000000000000000, 3.469446951953619711E-15 ) ) ;
#271 = CLOSED_SHELL ( 'NONE', ( #193, #330, #96 ) ) ;
#272 =( NAMED_UNIT ( * ) SI_UNIT ( $, .STERADIAN. ) SOLID_ANGLE_UNIT ( ) );
#273 = EDGE_CURVE ( 'NONE', #6, #1, #157, .T. ) ;
#274 = MANIFOLD_SOLID_BREP ( 'Corps-Déplacer/Copier1[2]', #271 ) ;
#275 = ORIENTED_EDGE ( 'NONE', *, *, #46, .F. ) ;
#276 = CC_DESIGN_APPROVAL ( #366, ( #109 ) ) ;
#277 = AXIS2_PLACEMENT_3D ( 'NONE', #7, #144, #236 ) ;
#278 = DATE_AND_TIME ( #128, #350 ) ;
#279 = CARTESIAN_POINT ( 'NONE',  ( 2.710459514068431749E-15, 0.7500000000000002220, 0.7500000000000086597 ) ) ;
#280 = EDGE_LOOP ( 'NONE', ( #292, #73, #247 ) ) ;
#281 = DATE_AND_TIME ( #137, #299 ) ;
#282 = LINE ( 'NONE', #30, #321 ) ;
#283 = VERTEX_POINT ( 'NONE', #279 ) ;
#284 = DATE_TIME_ROLE ( 'creation_date' ) ;
#285 = CC_DESIGN_PERSON_AND_ORGANIZATION_ASSIGNMENT ( #191, #310, ( #207 ) ) ;
#286 = DIRECTION ( 'NONE',  ( -3.491481338843133355E-15, 1.224646799147353207E-16, -1.000000000000000000 ) ) ;
#287 = ORIENTED_EDGE ( 'NONE', *, *, #308, .T. ) ;
#288 = DATE_AND_TIME ( #57, #50 ) ;
#289 = CARTESIAN_POINT ( 'NONE',  ( 2.199297399863183491E-14, 0.0000000000000000000, 6.299038105676652677 ) ) ;
#290 = COORDINATED_UNIVERSAL_TIME_OFFSET ( 1, 0, .AHEAD. ) ;
#291 = EDGE_CURVE ( 'NONE', #1, #54, #349, .T. ) ;
#292 = ORIENTED_EDGE ( 'NONE', *, *, #296, .F. ) ;
#293 = FACE_OUTER_BOUND ( 'NONE', #316, .T. ) ;
#294 = ORGANIZATION ( 'UNSPECIFIED', 'UNSPECIFIED', '' ) ;
#295 = CARTESIAN_POINT ( 'NONE',  ( 7.681091023650904747E-14, 1.499999999999997558, 6.299038105676652677 ) ) ;
#296 = EDGE_CURVE ( 'NONE', #235, #283, #373, .T. ) ;
#297 = CARTESIAN_POINT ( 'NONE',  ( 2.618611004132379993E-15, -1.084202172485516760E-16, 0.7500000000000085487 ) ) ;
#298 = CIRCLE ( 'NONE', #101, 0.7500000000000003331 ) ;
#299 = LOCAL_TIME ( 9, 38, 2.000000000000000000, #59 ) ;
#300 = CARTESIAN_POINT ( 'NONE',  ( 1.326762908760390423E-13, -4.653657836759941941E-15, 38.00000000000000000 ) ) ;
#301 = EDGE_CURVE ( 'NONE', #54, #306, #185, .T. ) ;
#302 = CC_DESIGN_DATE_AND_TIME_ASSIGNMENT ( #288, #284, ( #326 ) ) ;
#303 = DIRECTION ( 'NONE',  ( -3.491481338843133355E-15, 1.224646799147353207E-16, -1.000000000000000000 ) ) ;
#304 = ORIENTED_EDGE ( 'NONE', *, *, #46, .T. ) ;
#305 = CARTESIAN_POINT ( 'NONE',  ( 1.328232484919367446E-13, -1.200000000000005285, 38.00000000000000000 ) ) ;
#306 = VERTEX_POINT ( 'NONE', #256 ) ;
#307 = DIRECTION ( 'NONE',  ( -3.491481338843133355E-15, 0.0000000000000000000, -1.000000000000000000 ) ) ;
#308 = EDGE_CURVE ( 'NONE', #86, #92, #93, .T. ) ;
#309 = EDGE_LOOP ( 'NONE', ( #116, #94, #221, #368 ) ) ;
#310 = PERSON_AND_ORGANIZATION_ROLE ( 'design_owner' ) ;
#311 = CARTESIAN_POINT ( 'NONE',  ( -0.7499999999999816813, 1.377727649040770170E-16, 5.000000000000002665 ) ) ;
#312 = ORIENTED_EDGE ( 'NONE', *, *, #308, .F. ) ;
#313 = CIRCLE ( 'NONE', #117, 1.200000000000000844 ) ;
#314 = PERSON_AND_ORGANIZATION ( #264, #294 ) ;
#315 = CARTESIAN_POINT ( 'NONE',  ( 1.745740669421566678E-14, 0.0000000000000000000, 5.000000000000000000 ) ) ;
#316 = EDGE_LOOP ( 'NONE', ( #84, #217 ) ) ;
#317 = PRODUCT_RELATED_PRODUCT_CATEGORY ( 'detail', '', ( #207 ) ) ;
#318 = CALENDAR_DATE ( 2021, 21, 9 ) ;
#319 = CARTESIAN_POINT ( 'NONE',  ( 2.199297399863183491E-14, 0.0000000000000000000, 6.299038105676652677 ) ) ;
#320 = ORIENTED_EDGE ( 'NONE', *, *, #114, .T. ) ;
#321 = VECTOR ( 'NONE', #253, 1000.000000000000114 ) ;
#322 = DIRECTION ( 'NONE',  ( -3.491481338843133355E-15, 0.0000000000000000000, -1.000000000000000000 ) ) ;
#323 = VECTOR ( 'NONE', #252, 1000.000000000000000 ) ;
#324 = EDGE_CURVE ( 'NONE', #170, #283, #298, .T. ) ;
#325 = EDGE_LOOP ( 'NONE', ( #363, #125, #258, #4 ) ) ;
#326 = PRODUCT_DEFINITION ( 'UNKNOWN', '', #109, #10 ) ;
#327 = CARTESIAN_POINT ( 'NONE',  ( 2.199297399863183491E-14, 0.0000000000000000000, 6.299038105676652677 ) ) ;
#328 = PLANE ( 'NONE',  #182 ) ;
#329 = FACE_OUTER_BOUND ( 'NONE', #202, .T. ) ;
#330 = ADVANCED_FACE ( 'NONE', ( #379 ), #405, .T. ) ;
#331 = AXIS2_PLACEMENT_3D ( 'NONE', #181, #335, #242 ) ;
#332 =( NAMED_UNIT ( * ) PLANE_ANGLE_UNIT ( ) SI_UNIT ( $, .RADIAN. ) );
#333 = ORIENTED_EDGE ( 'NONE', *, *, #114, .F. ) ;
#334 = CARTESIAN_POINT ( 'NONE',  ( 0.0000000000000000000, 0.0000000000000000000, 0.0000000000000000000 ) ) ;
#335 = DIRECTION ( 'NONE',  ( -3.491481338843133355E-15, 1.224646799147353207E-16, -1.000000000000000000 ) ) ;
#336 = ADVANCED_BREP_SHAPE_REPRESENTATION ( '956800', ( #399, #274, #18 ), #241 ) ;
#337 = VERTEX_POINT ( 'NONE', #390 ) ;
#338 = CARTESIAN_POINT ( 'NONE',  ( 2.199297399863183491E-14, 0.0000000000000000000, 6.299038105676652677 ) ) ;
#339 = DIRECTION ( 'NONE',  ( -3.491481338843133355E-15, 1.224646799147353207E-16, -1.000000000000000000 ) ) ;
#340 = APPROVAL_STATUS ( 'not_yet_approved' ) ;
#341 = DIRECTION ( 'NONE',  ( -1.000000000000000000, 0.0000000000000000000, 3.491481338843133355E-15 ) ) ;
#342 = COORDINATED_UNIVERSAL_TIME_OFFSET ( 1, 0, .AHEAD. ) ;
#343 = DIRECTION ( 'NONE',  ( 1.000000000000000000, 0.0000000000000000000, -3.469446951953619711E-15 ) ) ;
#344 = ORIENTED_EDGE ( 'NONE', *, *, #148, .F. ) ;
#345 = DATE_TIME_ROLE ( 'classification_date' ) ;
#346 = ADVANCED_FACE ( 'NONE', ( #156 ), #364, .T. ) ;
#347 = PERSON_AND_ORGANIZATION ( #264, #294 ) ;
#348 = AXIS2_PLACEMENT_3D ( 'NONE', #123, #17, #249 ) ;
#349 = LINE ( 'NONE', #398, #140 ) ;
#350 = LOCAL_TIME ( 9, 38, 2.000000000000000000, #342 ) ;
#351 = ORIENTED_EDGE ( 'NONE', *, *, #164, .F. ) ;
#352 = DIRECTION ( 'NONE',  ( -3.491481338843133355E-15, 1.224646799147353207E-16, -1.000000000000000000 ) ) ;
#353 = ORIENTED_EDGE ( 'NONE', *, *, #199, .T. ) ;
#354 = FACE_OUTER_BOUND ( 'NONE', #370, .T. ) ;
#355 = EDGE_CURVE ( 'NONE', #6, #306, #118, .T. ) ;
#356 = CARTESIAN_POINT ( 'NONE',  ( 2.618611004132347650E-15, 0.0000000000000000000, 0.7499999999999993339 ) ) ;
#357 = CC_DESIGN_APPROVAL ( #382, ( #326 ) ) ;
#358 = DIRECTION ( 'NONE',  ( 0.0000000000000000000, 1.000000000000000000, 0.0000000000000000000 ) ) ;
#359 = EDGE_CURVE ( 'NONE', #102, #136, #237, .T. ) ;
#360 = DIRECTION ( 'NONE',  ( 4.275831445896958607E-31, 1.000000000000000000, 1.224646799147353207E-16 ) ) ;
#361 = CARTESIAN_POINT ( 'NONE',  ( 1.326762908760390423E-13, -4.653657836759941941E-15, 38.00000000000000000 ) ) ;
#362 = ORIENTED_EDGE ( 'NONE', *, *, #355, .F. ) ;
#363 = ORIENTED_EDGE ( 'NONE', *, *, #372, .F. ) ;
#364 = CYLINDRICAL_SURFACE ( 'NONE', #80, 0.7499999999999992228 ) ;
#365 = LINE ( 'NONE', #176, #386 ) ;
#366 = APPROVAL ( #200, 'UNSPECIFIED' ) ;
#367 = FACE_OUTER_BOUND ( 'NONE', #325, .T. ) ;
#368 = ORIENTED_EDGE ( 'NONE', *, *, #222, .F. ) ;
#369 = AXIS2_PLACEMENT_3D ( 'NONE', #383, #239, #11 ) ;
#370 = EDGE_LOOP ( 'NONE', ( #56, #275 ) ) ;
#371 = CIRCLE ( 'NONE', #3, 1.499999999999997558 ) ;
#372 = EDGE_CURVE ( 'NONE', #229, #65, #87, .T. ) ;
#373 = LINE ( 'NONE', #224, #145 ) ;
#374 = EDGE_LOOP ( 'NONE', ( #351, #61, #287, #353, #70 ) ) ;
#375 = PERSON_AND_ORGANIZATION_ROLE ( 'design_supplier' ) ;
#376 = CARTESIAN_POINT ( 'NONE',  ( 0.7500000000000166533, 0.0000000000000000000, 4.999999999999997335 ) ) ;
#377 = ORIENTED_EDGE ( 'NONE', *, *, #8, .T. ) ;
#378 = PERSON_AND_ORGANIZATION_ROLE ( 'creator' ) ;
#379 = FACE_OUTER_BOUND ( 'NONE', #280, .T. ) ;
#380 = VECTOR ( 'NONE', #89, 1000.000000000000114 ) ;
#381 = EDGE_CURVE ( 'NONE', #229, #205, #75, .T. ) ;
#382 = APPROVAL ( #340, 'UNSPECIFIED' ) ;
#383 = CARTESIAN_POINT ( 'NONE',  ( 2.618611004132347650E-15, 0.0000000000000000000, 0.7499999999999993339 ) ) ;
#384 = CARTESIAN_POINT ( 'NONE',  ( 1.836970198721021306E-16, -1.499999999999998224, -1.836970198721033878E-16 ) ) ;
#385 = AXIS2_PLACEMENT_3D ( 'NONE', #232, #34, #341 ) ;
#386 = VECTOR ( 'NONE', #257, 1000.000000000000000 ) ;
#387 = ADVANCED_FACE ( 'NONE', ( #90 ), #159, .T. ) ;
#388 = DIRECTION ( 'NONE',  ( 4.275831445896958607E-31, 1.000000000000000000, 1.224646799147353207E-16 ) ) ;
#389 = CARTESIAN_POINT ( 'NONE',  ( 1.316288464743861212E-13, 1.499999999999996225, 37.69999999999999574 ) ) ;
#390 = CARTESIAN_POINT ( 'NONE',  ( -0.7499999999999967804, 0.0000000000000000000, 0.7500000000000019984 ) ) ;
#391 = ORIENTED_EDGE ( 'NONE', *, *, #138, .T. ) ;
#392 = LINE ( 'NONE', #158, #380 ) ;
#393 = UNCERTAINTY_MEASURE_WITH_UNIT (LENGTH_MEASURE( 1.000000000000000082E-05 ), #115, 'distance_accuracy_value', 'NONE');
#394 = CARTESIAN_POINT ( 'NONE',  ( 7.699460725638104922E-14, -1.499999999999997558, 6.299038105676652677 ) ) ;
#395 = DIRECTION ( 'NONE',  ( 2.468850131082278754E-15, -0.7071067811865437980, 0.7071067811865513475 ) ) ;
#396 = CIRCLE ( 'NONE', #163, 1.499999999999997558 ) ;
#397 = SHAPE_DEFINITION_REPRESENTATION ( #47, #336 ) ;
#398 = CARTESIAN_POINT ( 'NONE',  ( 1.326762908760390423E-13, 1.199999999999996181, 38.00000000000000000 ) ) ;
#399 = MANIFOLD_SOLID_BREP ( 'Corps-Déplacer/Copier1[1]', #172 ) ;
#400 = LINE ( 'NONE', #127, #323 ) ;
#401 = APPROVAL_DATE_TIME ( #281, #78 ) ;
#402 = DIRECTION ( 'NONE',  ( -2.468850131082271655E-15, 0.7071067811865455743, -0.7071067811865493491 ) ) ;
#403 = AXIS2_PLACEMENT_3D ( 'NONE', #98, #126, #230 ) ;
#404 = ORIENTED_EDGE ( 'NONE', *, *, #273, .T. ) ;
#405 = CONICAL_SURFACE ( 'NONE', #213, 0.7500000000000003331, 0.7853981633974428389 ) ;
#406 = ADVANCED_FACE ( 'NONE', ( #183 ), #81, .T. ) ;
#407 = DIRECTION ( 'NONE',  ( 0.0000000000000000000, 1.000000000000000000, 0.0000000000000000000 ) ) ;
ENDSEC;
END-ISO-10303-21;
