ISO-10303-21;
HEADER;
FILE_DESCRIPTION (( 'STEP AP203' ),
    '1' );
FILE_NAME ('956799.step',
    '2021-09-21T07:38:01',
    ( '' ),
    ( '' ),
    'SwSTEP 2.0',
    'SolidWorks 2019',
    '' );
FILE_SCHEMA (( 'CONFIG_CONTROL_DESIGN' ));
ENDSEC;

DATA;
#1 = CC_DESIGN_APPROVAL ( #237, ( #46 ) ) ;
#2 = AXIS2_PLACEMENT_3D ( 'NONE', #404, #405, #92 ) ;
#3 = DIRECTION ( 'NONE',  ( -3.491481338843133355E-15, 1.224646799147353207E-16, -1.000000000000000000 ) ) ;
#4 = APPROVAL ( #19, 'UNSPECIFIED' ) ;
#5 = CYLINDRICAL_SURFACE ( 'NONE', #44, 0.4999999999999993339 ) ;
#6 = CARTESIAN_POINT ( 'NONE',  ( 1.745740669421586399E-15, -6.123233995736835061E-17, 0.5000000000000056621 ) ) ;
#7 = ORIENTED_EDGE ( 'NONE', *, *, #236, .F. ) ;
#8 = PERSON ( 'UNSPECIFIED', 'UNSPECIFIED', 'UNSPECIFIED', ('UNSPECIFIED'), ('UNSPECIFIED'), ('UNSPECIFIED') ) ;
#9 = AXIS2_PLACEMENT_3D ( 'NONE', #38, #220, #311 ) ;
#10 = DIRECTION ( 'NONE',  ( -3.491481338843133355E-15, 0.0000000000000000000, -1.000000000000000000 ) ) ;
#11 = EDGE_CURVE ( 'NONE', #59, #393, #345, .T. ) ;
#12 = EDGE_LOOP ( 'NONE', ( #228, #285, #113, #282, #288 ) ) ;
#13 = EDGE_CURVE ( 'NONE', #366, #240, #398, .T. ) ;
#14 = LOCAL_TIME ( 9, 38, 1.000000000000000000, #30 ) ;
#15 = CARTESIAN_POINT ( 'NONE',  ( 1.323178959930974653E-13, -1.200000000000005285, 38.00000000000000000 ) ) ;
#16 = DIRECTION ( 'NONE',  ( -4.275831445896958607E-31, -1.000000000000000000, -1.224646799147353207E-16 ) ) ;
#17 = VERTEX_POINT ( 'NONE', #365 ) ;
#18 = ORIENTED_EDGE ( 'NONE', *, *, #13, .F. ) ;
#19 = APPROVAL_STATUS ( 'not_yet_approved' ) ;
#20 = EDGE_CURVE ( 'NONE', #240, #393, #207, .T. ) ;
#21 = AXIS2_PLACEMENT_3D ( 'NONE', #198, #340, #216 ) ;
#22 = AXIS2_PLACEMENT_3D ( 'NONE', #6, #73, #244 ) ;
#23 = ORIENTED_EDGE ( 'NONE', *, *, #236, .T. ) ;
#24 = DIRECTION ( 'NONE',  ( 3.491481338843133355E-15, 0.0000000000000000000, 1.000000000000000000 ) ) ;
#25 = PERSON_AND_ORGANIZATION ( #8, #347 ) ;
#26 = CARTESIAN_POINT ( 'NONE',  ( 1.745740669421586005E-15, -0.5000000000000003331, 0.5000000000000055511 ) ) ;
#27 = PERSON_AND_ORGANIZATION_ROLE ( 'creator' ) ;
#28 = CARTESIAN_POINT ( 'NONE',  ( 1.326762908760390423E-13, -4.653657836759941941E-15, 38.00000000000000000 ) ) ;
#29 = EDGE_CURVE ( 'NONE', #146, #388, #202, .T. ) ;
#30 = COORDINATED_UNIVERSAL_TIME_OFFSET ( 1, 0, .AHEAD. ) ;
#31 = AXIS2_PLACEMENT_3D ( 'NONE', #187, #65, #276 ) ;
#32 = CARTESIAN_POINT ( 'NONE',  ( 1.500000000000014433, 0.0000000000000000000, 4.732050807568865203 ) ) ;
#33 = AXIS2_PLACEMENT_3D ( 'NONE', #254, #24, #197 ) ;
#34 = DIRECTION ( 'NONE',  ( -3.491481338843133355E-15, 0.0000000000000000000, -1.000000000000000000 ) ) ;
#35 = DATE_AND_TIME ( #61, #218 ) ;
#36 = APPROVAL ( #261, 'UNSPECIFIED' ) ;
#37 = DIRECTION ( 'NONE',  ( -3.491481338843133355E-15, 0.0000000000000000000, -1.000000000000000000 ) ) ;
#38 = CARTESIAN_POINT ( 'NONE',  ( 1.652186708908428881E-14, 0.0000000000000000000, 4.732050807568869644 ) ) ;
#39 = ORIENTED_EDGE ( 'NONE', *, *, #71, .F. ) ;
#40 = DIRECTION ( 'NONE',  ( -3.491481338843133355E-15, 1.224646799147353207E-16, -1.000000000000000000 ) ) ;
#41 = DIRECTION ( 'NONE',  ( -7.703719777548939909E-31, -1.000000000000000000, -2.168404344971007882E-16 ) ) ;
#42 = CARTESIAN_POINT ( 'NONE',  ( 1.745740669421565100E-15, 0.0000000000000000000, 0.4999999999999995559 ) ) ;
#43 = AXIS2_PLACEMENT_3D ( 'NONE', #397, #267, #179 ) ;
#44 = AXIS2_PLACEMENT_3D ( 'NONE', #248, #378, #103 ) ;
#45 = EDGE_LOOP ( 'NONE', ( #233, #49, #256, #230, #361 ) ) ;
#46 = SECURITY_CLASSIFICATION ( '', '', #154 ) ;
#47 = CYLINDRICAL_SURFACE ( 'NONE', #167, 1.499999999999998224 ) ;
#48 = EDGE_LOOP ( 'NONE', ( #301, #314, #148, #302 ) ) ;
#49 = ORIENTED_EDGE ( 'NONE', *, *, #383, .T. ) ;
#50 =( NAMED_UNIT ( * ) PLANE_ANGLE_UNIT ( ) SI_UNIT ( $, .RADIAN. ) );
#51 = CC_DESIGN_DATE_AND_TIME_ASSIGNMENT ( #239, #337, ( #315 ) ) ;
#52 = DIRECTION ( 'NONE',  ( -3.491481338843133355E-15, 1.224646799147353207E-16, -1.000000000000000000 ) ) ;
#53 = VECTOR ( 'NONE', #93, 1000.000000000000000 ) ;
#54 = AXIS2_PLACEMENT_3D ( 'NONE', #72, #195, #231 ) ;
#55 = ADVANCED_FACE ( 'NONE', ( #336 ), #306, .T. ) ;
#56 = ORIENTED_EDGE ( 'NONE', *, *, #190, .F. ) ;
#57 = DATE_AND_TIME ( #263, #399 ) ;
#58 = PERSON_AND_ORGANIZATION ( #8, #347 ) ;
#59 = VERTEX_POINT ( 'NONE', #122 ) ;
#60 = EDGE_CURVE ( 'NONE', #141, #299, #271, .T. ) ;
#61 = CALENDAR_DATE ( 2021, 21, 9 ) ;
#62 = CARTESIAN_POINT ( 'NONE',  ( 0.0000000000000000000, 0.0000000000000000000, 0.0000000000000000000 ) ) ;
#63 = CARTESIAN_POINT ( 'NONE',  ( 1.326762908760390423E-13, -4.653657836759941941E-15, 38.00000000000000000 ) ) ;
#64 = PERSON_AND_ORGANIZATION ( #8, #347 ) ;
#65 = DIRECTION ( 'NONE',  ( -3.491481338843133355E-15, 0.0000000000000000000, -1.000000000000000000 ) ) ;
#66 = CARTESIAN_POINT ( 'NONE',  ( 1.836970198721021306E-16, -1.499999999999998224, -1.836970198721033878E-16 ) ) ;
#67 = ADVANCED_FACE ( 'NONE', ( #356 ), #305, .T. ) ;
#68 = CARTESIAN_POINT ( 'NONE',  ( -1.499999999999981348, 1.836970198721027222E-16, 4.732050807568874973 ) ) ;
#69 = DIRECTION ( 'NONE',  ( -1.000000000000000000, 0.0000000000000000000, 3.469446951953619316E-15 ) ) ;
#70 = VECTOR ( 'NONE', #232, 1000.000000000000000 ) ;
#71 = EDGE_CURVE ( 'NONE', #366, #59, #370, .T. ) ;
#72 = CARTESIAN_POINT ( 'NONE',  ( 1.652186708908428881E-14, 0.0000000000000000000, 4.732050807568869644 ) ) ;
#73 = DIRECTION ( 'NONE',  ( 3.491481338843133355E-15, -1.224646799147353207E-16, 1.000000000000000000 ) ) ;
#74 = ORIENTED_EDGE ( 'NONE', *, *, #212, .T. ) ;
#75 = DIRECTION ( 'NONE',  ( -3.491481338843133355E-15, 1.224646799147353207E-16, -1.000000000000000000 ) ) ;
#76 = DIRECTION ( 'NONE',  ( -1.000000000000000000, 0.0000000000000000000, 3.469446951953619316E-15 ) ) ;
#77 = EDGE_LOOP ( 'NONE', ( #39, #120, #149, #144 ) ) ;
#78 = DIRECTION ( 'NONE',  ( 0.0000000000000000000, 1.000000000000000000, 0.0000000000000000000 ) ) ;
#79 = VECTOR ( 'NONE', #3, 1000.000000000000000 ) ;
#80 = DIRECTION ( 'NONE',  ( -0.4999999999999980571, 6.123233995736779594E-17, 0.8660254037844397068 ) ) ;
#81 = DIRECTION ( 'NONE',  ( -3.491481338843133355E-15, 1.224646799147353207E-16, -1.000000000000000000 ) ) ;
#82 =( NAMED_UNIT ( * ) SI_UNIT ( $, .STERADIAN. ) SOLID_ANGLE_UNIT ( ) );
#83 = EDGE_LOOP ( 'NONE', ( #56, #18 ) ) ;
#84 = CLOSED_SHELL ( 'NONE', ( #114, #131, #160 ) ) ;
#85 = AXIS2_PLACEMENT_3D ( 'NONE', #381, #273, #250 ) ;
#86 = APPROVAL_PERSON_ORGANIZATION ( #58, #4, #343 ) ;
#87 = EDGE_CURVE ( 'NONE', #324, #168, #300, .T. ) ;
#88 = CARTESIAN_POINT ( 'NONE',  ( 1.326762908760390423E-13, 1.199999999999996181, 38.00000000000000000 ) ) ;
#89 = PERSON_AND_ORGANIZATION ( #8, #347 ) ;
#90 = ORIENTED_EDGE ( 'NONE', *, *, #152, .T. ) ;
#91 = PERSON_AND_ORGANIZATION ( #8, #347 ) ;
#92 = DIRECTION ( 'NONE',  ( -1.000000000000000000, 0.0000000000000000000, 3.469446951953619316E-15 ) ) ;
#93 = DIRECTION ( 'NONE',  ( -2.382254525458723780E-15, -0.7071067811865453523, -0.7071067811865496822 ) ) ;
#94 = DIRECTION ( 'NONE',  ( -3.491481338843133355E-15, 1.224646799147353207E-16, -1.000000000000000000 ) ) ;
#95 = EDGE_CURVE ( 'NONE', #299, #297, #226, .T. ) ;
#96 = DATE_AND_TIME ( #157, #98 ) ;
#97 = VECTOR ( 'NONE', #205, 1000.000000000000114 ) ;
#98 = LOCAL_TIME ( 9, 38, 1.000000000000000000, #219 ) ;
#99 = DIRECTION ( 'NONE',  ( -4.275831445896958607E-31, -1.000000000000000000, -1.224646799147353207E-16 ) ) ;
#100 = DATE_AND_TIME ( #129, #14 ) ;
#101 = FACE_OUTER_BOUND ( 'NONE', #136, .T. ) ;
#102 = EDGE_CURVE ( 'NONE', #338, #334, #191, .T. ) ;
#103 = DIRECTION ( 'NONE',  ( -1.000000000000000000, 0.0000000000000000000, 3.491481338843133750E-15 ) ) ;
#104 = ORIENTED_EDGE ( 'NONE', *, *, #192, .T. ) ;
#105 = PLANE ( 'NONE',  #387 ) ;
#106 = ORIENTED_EDGE ( 'NONE', *, *, #406, .T. ) ;
#107 = AXIS2_PLACEMENT_3D ( 'NONE', #272, #132, #274 ) ;
#108 = CARTESIAN_POINT ( 'NONE',  ( 1.326762908760390423E-13, -4.653657836759941941E-15, 38.00000000000000000 ) ) ;
#109 = ORIENTED_EDGE ( 'NONE', *, *, #95, .F. ) ;
#110 = DIRECTION ( 'NONE',  ( -3.491481338843133355E-15, 1.224646799147353207E-16, -1.000000000000000000 ) ) ;
#111 = EDGE_LOOP ( 'NONE', ( #333, #316, #257, #291, #109 ) ) ;
#112 = FACE_OUTER_BOUND ( 'NONE', #12, .T. ) ;
#113 = ORIENTED_EDGE ( 'NONE', *, *, #266, .T. ) ;
#114 = ADVANCED_FACE ( 'NONE', ( #339 ), #292, .T. ) ;
#115 = CIRCLE ( 'NONE', #341, 1.200000000000000844 ) ;
#116 = ORIENTED_EDGE ( 'NONE', *, *, #87, .T. ) ;
#117 = VECTOR ( 'NONE', #80, 1000.000000000000114 ) ;
#118 = CARTESIAN_POINT ( 'NONE',  ( 1.326762908760390423E-13, -4.653657836759941941E-15, 38.00000000000000000 ) ) ;
#119 = COORDINATED_UNIVERSAL_TIME_OFFSET ( 1, 0, .AHEAD. ) ;
#120 = ORIENTED_EDGE ( 'NONE', *, *, #13, .T. ) ;
#121 = AXIS2_PLACEMENT_3D ( 'NONE', #353, #280, #69 ) ;
#122 = CARTESIAN_POINT ( 'NONE',  ( 7.425905380160713417E-14, -1.500000000000005329, 37.69999999999999574 ) ) ;
#123 = CC_DESIGN_APPROVAL ( #36, ( #315 ) ) ;
#124 = PERSON_AND_ORGANIZATION ( #8, #347 ) ;
#125 = PERSON_AND_ORGANIZATION_ROLE ( 'classification_officer' ) ;
#126 = CARTESIAN_POINT ( 'NONE',  ( 1.326762908760390423E-13, 8.998558695971082698E-33, 38.00000000000000000 ) ) ;
#127 = CIRCLE ( 'NONE', #9, 1.499999999999997780 ) ;
#128 = LINE ( 'NONE', #313, #140 ) ;
#129 = CALENDAR_DATE ( 2021, 21, 9 ) ;
#130 = CONICAL_SURFACE ( 'NONE', #332, 1.200000000000000844, 0.7853981633974453924 ) ;
#131 = ADVANCED_FACE ( 'NONE', ( #346 ), #249, .T. ) ;
#132 = DIRECTION ( 'NONE',  ( -3.491481338843133355E-15, 1.224646799147353207E-16, -1.000000000000000000 ) ) ;
#133 = CIRCLE ( 'NONE', #278, 0.4999999999999995559 ) ;
#134 = LINE ( 'NONE', #326, #70 ) ;
#135 = DIRECTION ( 'NONE',  ( -3.491481338843133355E-15, 0.0000000000000000000, -1.000000000000000000 ) ) ;
#136 = EDGE_LOOP ( 'NONE', ( #178, #139, #104, #400 ) ) ;
#137 = CARTESIAN_POINT ( 'NONE',  ( 0.5000000000000013323, 6.123233995736759873E-17, 0.4999999999999978351 ) ) ;
#138 = ORIENTED_EDGE ( 'NONE', *, *, #281, .T. ) ;
#139 = ORIENTED_EDGE ( 'NONE', *, *, #251, .T. ) ;
#140 = VECTOR ( 'NONE', #217, 1000.000000000000000 ) ;
#141 = VERTEX_POINT ( 'NONE', #32 ) ;
#142 = CYLINDRICAL_SURFACE ( 'NONE', #323, 1.499999999999998224 ) ;
#143 = EDGE_CURVE ( 'NONE', #334, #168, #196, .T. ) ;
#144 = ORIENTED_EDGE ( 'NONE', *, *, #11, .F. ) ;
#145 = APPLICATION_PROTOCOL_DEFINITION ( 'international standard', 'config_control_design', 1994, #175 ) ;
#146 = VERTEX_POINT ( 'NONE', #62 ) ;
#147 = CARTESIAN_POINT ( 'NONE',  ( 0.0000000000000000000, 0.0000000000000000000, 0.0000000000000000000 ) ) ;
#148 = ORIENTED_EDGE ( 'NONE', *, *, #87, .F. ) ;
#149 = ORIENTED_EDGE ( 'NONE', *, *, #20, .T. ) ;
#150 = PERSON_AND_ORGANIZATION_ROLE ( 'design_supplier' ) ;
#151 = CIRCLE ( 'NONE', #209, 1.500000000000000666 ) ;
#152 = EDGE_CURVE ( 'NONE', #168, #324, #133, .T. ) ;
#153 = CARTESIAN_POINT ( 'NONE',  ( 7.407535678173528388E-14, 1.499999999999998002, 4.732050807568869644 ) ) ;
#154 = SECURITY_CLASSIFICATION_LEVEL ( 'unclassified' ) ;
#155 = DIRECTION ( 'NONE',  ( -1.000000000000000000, 0.0000000000000000000, 3.491481338843133750E-15 ) ) ;
#156 = DIRECTION ( 'NONE',  ( 0.0000000000000000000, 1.000000000000000000, 0.0000000000000000000 ) ) ;
#157 = CALENDAR_DATE ( 2021, 21, 9 ) ;
#158 = AXIS2_PLACEMENT_3D ( 'NONE', #211, #284, #76 ) ;
#159 = CIRCLE ( 'NONE', #2, 0.4999999999999992784 ) ;
#160 = ADVANCED_FACE ( 'NONE', ( #304 ), #105, .T. ) ;
#161 = CARTESIAN_POINT ( 'NONE',  ( 1.326762908760390423E-13, 1.199999999999996181, 38.00000000000000000 ) ) ;
#162 = CARTESIAN_POINT ( 'NONE',  ( -0.4999999999999993339, 0.0000000000000000000, 1.745740669421564508E-15 ) ) ;
#163 = CARTESIAN_POINT ( 'NONE',  ( -0.4999999999999887312, 1.224646799147351482E-16, 3.000000000000001776 ) ) ;
#164 = CARTESIAN_POINT ( 'NONE',  ( 0.4999999999999993339, 6.123233995736758640E-17, -1.745740669421564508E-15 ) ) ;
#165 = ORIENTED_EDGE ( 'NONE', *, *, #212, .F. ) ;
#166 = FACE_OUTER_BOUND ( 'NONE', #77, .T. ) ;
#167 = AXIS2_PLACEMENT_3D ( 'NONE', #283, #110, #330 ) ;
#168 = VERTEX_POINT ( 'NONE', #137 ) ;
#169 = CC_DESIGN_PERSON_AND_ORGANIZATION_ASSIGNMENT ( #64, #150, ( #354 ) ) ;
#170 = DIRECTION ( 'NONE',  ( -3.491481338843133355E-15, 1.224646799147353207E-16, -1.000000000000000000 ) ) ;
#171 = VERTEX_POINT ( 'NONE', #153 ) ;
#172 = PRODUCT_DEFINITION_SHAPE ( 'NONE', 'NONE',  #315 ) ;
#173 = EDGE_LOOP ( 'NONE', ( #382, #138, #294, #403, #320 ) ) ;
#174 = CARTESIAN_POINT ( 'NONE',  ( 1.316288464743861212E-13, -4.616918432785521081E-15, 37.69999999999999574 ) ) ;
#175 = APPLICATION_CONTEXT ( 'configuration controlled 3d designs of mechanical parts and assemblies' ) ;
#176 = DIRECTION ( 'NONE',  ( 0.0000000000000000000, 1.000000000000000000, 0.0000000000000000000 ) ) ;
#177 = CC_DESIGN_PERSON_AND_ORGANIZATION_ASSIGNMENT ( #89, #335, ( #181 ) ) ;
#178 = ORIENTED_EDGE ( 'NONE', *, *, #143, .F. ) ;
#179 = DIRECTION ( 'NONE',  ( 0.0000000000000000000, 1.000000000000000000, 0.0000000000000000000 ) ) ;
#180 = PERSON_AND_ORGANIZATION ( #8, #347 ) ;
#181 = PRODUCT ( '956799', '956799', '', ( #364 ) ) ;
#182 = DIRECTION ( 'NONE',  ( 0.0000000000000000000, 1.000000000000000000, 0.0000000000000000000 ) ) ;
#183 = APPLICATION_PROTOCOL_DEFINITION ( 'international standard', 'config_control_design', 1994, #188 ) ;
#184 = DIRECTION ( 'NONE',  ( -1.000000000000000000, 0.0000000000000000000, 3.469446951953617344E-15 ) ) ;
#185 = EDGE_CURVE ( 'NONE', #297, #171, #127, .T. ) ;
#186 = CC_DESIGN_APPROVAL ( #4, ( #354 ) ) ;
#187 = CARTESIAN_POINT ( 'NONE',  ( 1.745740669421565100E-15, 0.0000000000000000000, 0.4999999999999995559 ) ) ;
#188 = APPLICATION_CONTEXT ( 'configuration controlled 3d designs of mechanical parts and assemblies' ) ;
#189 = FACE_OUTER_BOUND ( 'NONE', #394, .T. ) ;
#190 = EDGE_CURVE ( 'NONE', #240, #366, #115, .T. ) ;
#191 = CIRCLE ( 'NONE', #21, 0.4999999999999992784 ) ;
#192 = EDGE_CURVE ( 'NONE', #338, #324, #193, .T. ) ;
#193 = LINE ( 'NONE', #162, #293 ) ;
#194 = AXIS2_PLACEMENT_3D ( 'NONE', #223, #34, #155 ) ;
#195 = DIRECTION ( 'NONE',  ( 3.491481338843133355E-15, 0.0000000000000000000, 1.000000000000000000 ) ) ;
#196 = LINE ( 'NONE', #164, #268 ) ;
#197 = DIRECTION ( 'NONE',  ( 1.000000000000000000, 0.0000000000000000000, -3.469446951953619316E-15 ) ) ;
#198 = CARTESIAN_POINT ( 'NONE',  ( 1.047444401652940007E-14, 0.0000000000000000000, 3.000000000000000000 ) ) ;
#199 = DESIGN_CONTEXT ( 'detailed design', #188, 'design' ) ;
#200 = LINE ( 'NONE', #322, #117 ) ;
#201 = APPROVAL_PERSON_ORGANIZATION ( #124, #237, #243 ) ;
#202 = LINE ( 'NONE', #26, #321 ) ;
#203 =( GEOMETRIC_REPRESENTATION_CONTEXT ( 3 ) GLOBAL_UNCERTAINTY_ASSIGNED_CONTEXT ( ( #401 ) ) GLOBAL_UNIT_ASSIGNED_CONTEXT ( ( #328, #50, #82 ) ) REPRESENTATION_CONTEXT ( 'NONE', 'WORKASPACE' ) );
#204 = ORIENTED_EDGE ( 'NONE', *, *, #20, .F. ) ;
#205 = DIRECTION ( 'NONE',  ( -2.468850131082271655E-15, 0.7071067811865455743, -0.7071067811865493491 ) ) ;
#206 = COORDINATED_UNIVERSAL_TIME_OFFSET ( 1, 0, .AHEAD. ) ;
#207 = LINE ( 'NONE', #88, #97 ) ;
#208 = EDGE_LOOP ( 'NONE', ( #238, #106, #23 ) ) ;
#209 = AXIS2_PLACEMENT_3D ( 'NONE', #174, #75, #78 ) ;
#210 = SHAPE_DEFINITION_REPRESENTATION ( #172, #298 ) ;
#211 = CARTESIAN_POINT ( 'NONE',  ( 1.652186708908428881E-14, 0.0000000000000000000, 4.732050807568869644 ) ) ;
#212 = EDGE_CURVE ( 'NONE', #388, #17, #262, .T. ) ;
#213 = APPROVAL_DATE_TIME ( #57, #36 ) ;
#214 = CARTESIAN_POINT ( 'NONE',  ( 1.328232484919367446E-13, -1.200000000000005285, 38.00000000000000000 ) ) ;
#215 = PLANE ( 'NONE',  #391 ) ;
#216 = DIRECTION ( 'NONE',  ( -1.000000000000000000, 0.0000000000000000000, 3.469446951953619316E-15 ) ) ;
#217 = DIRECTION ( 'NONE',  ( 0.5000000000000041078, 0.0000000000000000000, 0.8660254037844363761 ) ) ;
#218 = LOCAL_TIME ( 9, 38, 1.000000000000000000, #310 ) ;
#219 = COORDINATED_UNIVERSAL_TIME_OFFSET ( 1, 0, .AHEAD. ) ;
#220 = DIRECTION ( 'NONE',  ( -3.491481338843133355E-15, 0.0000000000000000000, -1.000000000000000000 ) ) ;
#221 = CARTESIAN_POINT ( 'NONE',  ( -0.4999999999999978351, 0.0000000000000000000, 0.5000000000000013323 ) ) ;
#222 = ORIENTED_EDGE ( 'NONE', *, *, #71, .T. ) ;
#223 = CARTESIAN_POINT ( 'NONE',  ( 0.0000000000000000000, 0.0000000000000000000, 0.0000000000000000000 ) ) ;
#224 = ORIENTED_EDGE ( 'NONE', *, *, #29, .T. ) ;
#225 = CARTESIAN_POINT ( 'NONE',  ( 0.5000000000000097700, 0.0000000000000000000, 2.999999999999998224 ) ) ;
#226 = CIRCLE ( 'NONE', #158, 1.499999999999997780 ) ;
#227 = CIRCLE ( 'NONE', #107, 0.5000000000000002220 ) ;
#228 = ORIENTED_EDGE ( 'NONE', *, *, #383, .F. ) ;
#229 = DIRECTION ( 'NONE',  ( 4.275831445896958607E-31, 1.000000000000000000, 1.224646799147353207E-16 ) ) ;
#230 = ORIENTED_EDGE ( 'NONE', *, *, #277, .T. ) ;
#231 = DIRECTION ( 'NONE',  ( 1.000000000000000000, 0.0000000000000000000, -3.469446951953619316E-15 ) ) ;
#232 = DIRECTION ( 'NONE',  ( -3.491481338843133355E-15, 1.224646799147353207E-16, -1.000000000000000000 ) ) ;
#233 = ORIENTED_EDGE ( 'NONE', *, *, #102, .F. ) ;
#234 = CC_DESIGN_SECURITY_CLASSIFICATION ( #46, ( #354 ) ) ;
#235 = DIRECTION ( 'NONE',  ( 1.000000000000000000, 0.0000000000000000000, 0.0000000000000000000 ) ) ;
#236 = EDGE_CURVE ( 'NONE', #17, #388, #227, .T. ) ;
#237 = APPROVAL ( #275, 'UNSPECIFIED' ) ;
#238 = ORIENTED_EDGE ( 'NONE', *, *, #29, .F. ) ;
#239 = DATE_AND_TIME ( #362, #379 ) ;
#240 = VERTEX_POINT ( 'NONE', #161 ) ;
#241 = APPROVAL_DATE_TIME ( #35, #4 ) ;
#242 = AXIS2_PLACEMENT_3D ( 'NONE', #246, #309, #99 ) ;
#243 = APPROVAL_ROLE ( '' ) ;
#244 = DIRECTION ( 'NONE',  ( -7.703719777548939909E-31, -1.000000000000000000, -2.168404344971007882E-16 ) ) ;
#245 = PRODUCT_RELATED_PRODUCT_CATEGORY ( 'detail', '', ( #181 ) ) ;
#246 = CARTESIAN_POINT ( 'NONE',  ( 1.745740669421586794E-15, 3.749399456654644020E-33, 0.5000000000000057732 ) ) ;
#247 = PLANE ( 'NONE',  #242 ) ;
#248 = CARTESIAN_POINT ( 'NONE',  ( 0.0000000000000000000, 0.0000000000000000000, 0.0000000000000000000 ) ) ;
#249 = CONICAL_SURFACE ( 'NONE', #22, 0.5000000000000002220, 0.7853981633974428389 ) ;
#250 = DIRECTION ( 'NONE',  ( -1.000000000000000000, 0.0000000000000000000, 3.469446951953619316E-15 ) ) ;
#251 = EDGE_CURVE ( 'NONE', #334, #338, #159, .T. ) ;
#252 = ADVANCED_FACE ( 'NONE', ( #372 ), #215, .F. ) ;
#253 = CLOSED_SHELL ( 'NONE', ( #67, #331, #55, #392, #360, #351, #252, #375, #312, #289 ) ) ;
#254 = CARTESIAN_POINT ( 'NONE',  ( 1.652186708908428881E-14, 0.0000000000000000000, 4.732050807568869644 ) ) ;
#255 = EDGE_LOOP ( 'NONE', ( #359, #222, #386, #204 ) ) ;
#256 = ORIENTED_EDGE ( 'NONE', *, *, #185, .T. ) ;
#257 = ORIENTED_EDGE ( 'NONE', *, *, #371, .T. ) ;
#258 = CARTESIAN_POINT ( 'NONE',  ( 0.0000000000000000000, 0.0000000000000000000, 0.0000000000000000000 ) ) ;
#259 = ORIENTED_EDGE ( 'NONE', *, *, #406, .F. ) ;
#260 = CARTESIAN_POINT ( 'NONE',  ( 1.316288464743861212E-13, 1.499999999999996225, 37.69999999999999574 ) ) ;
#261 = APPROVAL_STATUS ( 'not_yet_approved' ) ;
#262 = CIRCLE ( 'NONE', #319, 0.5000000000000002220 ) ;
#263 = CALENDAR_DATE ( 2021, 21, 9 ) ;
#264 = AXIS2_PLACEMENT_3D ( 'NONE', #118, #81, #182 ) ;
#265 = DIRECTION ( 'NONE',  ( 0.0000000000000000000, 0.0000000000000000000, 1.000000000000000000 ) ) ;
#266 = EDGE_CURVE ( 'NONE', #334, #141, #128, .T. ) ;
#267 = DIRECTION ( 'NONE',  ( -3.491481338843133355E-15, 1.224646799147353207E-16, -1.000000000000000000 ) ) ;
#268 = VECTOR ( 'NONE', #10, 1000.000000000000000 ) ;
#269 = DATE_TIME_ROLE ( 'classification_date' ) ;
#270 = DIRECTION ( 'NONE',  ( 3.491481338843133355E-15, -1.224646799147353207E-16, 1.000000000000000000 ) ) ;
#271 = CIRCLE ( 'NONE', #85, 1.499999999999997780 ) ;
#272 = CARTESIAN_POINT ( 'NONE',  ( 1.745740669421586399E-15, -6.123233995736835061E-17, 0.5000000000000056621 ) ) ;
#273 = DIRECTION ( 'NONE',  ( -3.491481338843133355E-15, 0.0000000000000000000, -1.000000000000000000 ) ) ;
#274 = DIRECTION ( 'NONE',  ( 7.703719777548939909E-31, 1.000000000000000000, 2.168404344971007882E-16 ) ) ;
#275 = APPROVAL_STATUS ( 'not_yet_approved' ) ;
#276 = DIRECTION ( 'NONE',  ( -1.000000000000000000, 0.0000000000000000000, 3.469446951953617344E-15 ) ) ;
#277 = EDGE_CURVE ( 'NONE', #171, #141, #279, .T. ) ;
#278 = AXIS2_PLACEMENT_3D ( 'NONE', #42, #135, #184 ) ;
#279 = CIRCLE ( 'NONE', #121, 1.499999999999997780 ) ;
#280 = DIRECTION ( 'NONE',  ( -3.491481338843133355E-15, 0.0000000000000000000, -1.000000000000000000 ) ) ;
#281 = EDGE_CURVE ( 'NONE', #59, #299, #348, .T. ) ;
#282 = ORIENTED_EDGE ( 'NONE', *, *, #60, .T. ) ;
#283 = CARTESIAN_POINT ( 'NONE',  ( 0.0000000000000000000, 0.0000000000000000000, 0.0000000000000000000 ) ) ;
#284 = DIRECTION ( 'NONE',  ( -3.491481338843133355E-15, 0.0000000000000000000, -1.000000000000000000 ) ) ;
#285 = ORIENTED_EDGE ( 'NONE', *, *, #251, .F. ) ;
#286 = DIRECTION ( 'NONE',  ( 0.0000000000000000000, 1.000000000000000000, 0.0000000000000000000 ) ) ;
#287 = DIRECTION ( 'NONE',  ( 3.491481338843133355E-15, -1.224646799147353207E-16, 1.000000000000000000 ) ) ;
#288 = ORIENTED_EDGE ( 'NONE', *, *, #95, .T. ) ;
#289 = ADVANCED_FACE ( 'NONE', ( #189 ), #247, .F. ) ;
#290 = DIRECTION ( 'NONE',  ( -3.491481338843133355E-15, 1.224646799147353207E-16, -1.000000000000000000 ) ) ;
#291 = ORIENTED_EDGE ( 'NONE', *, *, #185, .F. ) ;
#292 = CONICAL_SURFACE ( 'NONE', #352, 0.5000000000000002220, 0.7853981633974428389 ) ;
#293 = VECTOR ( 'NONE', #37, 1000.000000000000000 ) ;
#294 = ORIENTED_EDGE ( 'NONE', *, *, #60, .F. ) ;
#295 = FACE_OUTER_BOUND ( 'NONE', #173, .T. ) ;
#296 = EDGE_LOOP ( 'NONE', ( #165, #7 ) ) ;
#297 = VERTEX_POINT ( 'NONE', #68 ) ;
#298 = ADVANCED_BREP_SHAPE_REPRESENTATION ( '956799', ( #396, #390, #389 ), #203 ) ;
#299 = VERTEX_POINT ( 'NONE', #376 ) ;
#300 = CIRCLE ( 'NONE', #31, 0.4999999999999995559 ) ;
#301 = ORIENTED_EDGE ( 'NONE', *, *, #102, .T. ) ;
#302 = ORIENTED_EDGE ( 'NONE', *, *, #192, .F. ) ;
#303 = CC_DESIGN_DATE_AND_TIME_ASSIGNMENT ( #96, #269, ( #46 ) ) ;
#304 = FACE_OUTER_BOUND ( 'NONE', #296, .T. ) ;
#305 = CYLINDRICAL_SURFACE ( 'NONE', #194, 0.4999999999999993339 ) ;
#306 = CONICAL_SURFACE ( 'NONE', #368, 1.200000000000000844, 0.7853981633974453924 ) ;
#307 = APPROVAL_PERSON_ORGANIZATION ( #25, #36, #395 ) ;
#308 = DIRECTION ( 'NONE',  ( -3.491481338843133355E-15, 1.224646799147353207E-16, -1.000000000000000000 ) ) ;
#309 = DIRECTION ( 'NONE',  ( 3.491481338843133355E-15, -1.224646799147353207E-16, 1.000000000000000000 ) ) ;
#310 = COORDINATED_UNIVERSAL_TIME_OFFSET ( 1, 0, .AHEAD. ) ;
#311 = DIRECTION ( 'NONE',  ( -1.000000000000000000, 0.0000000000000000000, 3.469446951953619316E-15 ) ) ;
#312 = ADVANCED_FACE ( 'NONE', ( #101 ), #5, .T. ) ;
#313 = CARTESIAN_POINT ( 'NONE',  ( 1.500000000000014433, 0.0000000000000000000, 4.732050807568865203 ) ) ;
#314 = ORIENTED_EDGE ( 'NONE', *, *, #143, .T. ) ;
#315 = PRODUCT_DEFINITION ( 'UNKNOWN', '', #354, #199 ) ;
#316 = ORIENTED_EDGE ( 'NONE', *, *, #11, .T. ) ;
#317 = CARTESIAN_POINT ( 'NONE',  ( 1.745740669421586005E-15, -0.5000000000000003331, 0.5000000000000055511 ) ) ;
#318 = CARTESIAN_POINT ( 'NONE',  ( 1.745740669421586399E-15, -6.123233995736835061E-17, 0.5000000000000056621 ) ) ;
#319 = AXIS2_PLACEMENT_3D ( 'NONE', #349, #40, #407 ) ;
#320 = ORIENTED_EDGE ( 'NONE', *, *, #371, .F. ) ;
#321 = VECTOR ( 'NONE', #329, 1000.000000000000000 ) ;
#322 = CARTESIAN_POINT ( 'NONE',  ( -1.499999999999981348, 1.836970198721027222E-16, 4.732050807568874973 ) ) ;
#323 = AXIS2_PLACEMENT_3D ( 'NONE', #258, #170, #229 ) ;
#324 = VERTEX_POINT ( 'NONE', #221 ) ;
#325 = CC_DESIGN_PERSON_AND_ORGANIZATION_ASSIGNMENT ( #180, #27, ( #315 ) ) ;
#326 = CARTESIAN_POINT ( 'NONE',  ( 6.413747168845430903E-31, 1.499999999999998224, 1.836970198721027715E-16 ) ) ;
#327 = EDGE_LOOP ( 'NONE', ( #259, #224, #74 ) ) ;
#328 =( LENGTH_UNIT ( ) NAMED_UNIT ( * ) SI_UNIT ( .MILLI., .METRE. ) );
#329 = DIRECTION ( 'NONE',  ( 2.468850131082278754E-15, -0.7071067811865437980, 0.7071067811865513475 ) ) ;
#330 = DIRECTION ( 'NONE',  ( 4.275831445896958607E-31, 1.000000000000000000, 1.224646799147353207E-16 ) ) ;
#331 = ADVANCED_FACE ( 'NONE', ( #355 ), #369, .T. ) ;
#332 = AXIS2_PLACEMENT_3D ( 'NONE', #108, #290, #286 ) ;
#333 = ORIENTED_EDGE ( 'NONE', *, *, #281, .F. ) ;
#334 = VERTEX_POINT ( 'NONE', #225 ) ;
#335 = PERSON_AND_ORGANIZATION_ROLE ( 'design_owner' ) ;
#336 = FACE_OUTER_BOUND ( 'NONE', #255, .T. ) ;
#337 = DATE_TIME_ROLE ( 'creation_date' ) ;
#338 = VERTEX_POINT ( 'NONE', #163 ) ;
#339 = FACE_OUTER_BOUND ( 'NONE', #208, .T. ) ;
#340 = DIRECTION ( 'NONE',  ( -3.491481338843133355E-15, 0.0000000000000000000, -1.000000000000000000 ) ) ;
#341 = AXIS2_PLACEMENT_3D ( 'NONE', #63, #308, #156 ) ;
#342 = DIRECTION ( 'NONE',  ( 4.275831445896958607E-31, 1.000000000000000000, 1.224646799147353207E-16 ) ) ;
#343 = APPROVAL_ROLE ( '' ) ;
#344 = CC_DESIGN_PERSON_AND_ORGANIZATION_ASSIGNMENT ( #91, #373, ( #354 ) ) ;
#345 = CIRCLE ( 'NONE', #43, 1.500000000000000666 ) ;
#346 = FACE_OUTER_BOUND ( 'NONE', #327, .T. ) ;
#347 = ORGANIZATION ( 'UNSPECIFIED', 'UNSPECIFIED', '' ) ;
#348 = LINE ( 'NONE', #66, #79 ) ;
#349 = CARTESIAN_POINT ( 'NONE',  ( 1.745740669421586399E-15, -6.123233995736835061E-17, 0.5000000000000056621 ) ) ;
#350 = APPROVAL_DATE_TIME ( #100, #237 ) ;
#351 = ADVANCED_FACE ( 'NONE', ( #166 ), #130, .T. ) ;
#352 = AXIS2_PLACEMENT_3D ( 'NONE', #318, #270, #41 ) ;
#353 = CARTESIAN_POINT ( 'NONE',  ( 1.652186708908428881E-14, 0.0000000000000000000, 4.732050807568869644 ) ) ;
#354 = PRODUCT_DEFINITION_FORMATION_WITH_SPECIFIED_SOURCE ( 'ANY', '', #181, .NOT_KNOWN. ) ;
#355 = FACE_OUTER_BOUND ( 'NONE', #45, .T. ) ;
#356 = FACE_OUTER_BOUND ( 'NONE', #48, .T. ) ;
#357 = DIRECTION ( 'NONE',  ( 2.555445736705828206E-15, 0.7071067811865435759, 0.7071067811865515695 ) ) ;
#358 = FACE_OUTER_BOUND ( 'NONE', #111, .T. ) ;
#359 = ORIENTED_EDGE ( 'NONE', *, *, #190, .T. ) ;
#360 = ADVANCED_FACE ( 'NONE', ( #358 ), #47, .T. ) ;
#361 = ORIENTED_EDGE ( 'NONE', *, *, #266, .F. ) ;
#362 = CALENDAR_DATE ( 2021, 21, 9 ) ;
#363 = VECTOR ( 'NONE', #357, 1000.000000000000000 ) ;
#364 = MECHANICAL_CONTEXT ( 'NONE', #175, 'mechanical' ) ;
#365 = CARTESIAN_POINT ( 'NONE',  ( 1.806973009378954368E-15, 0.5000000000000001110, 0.5000000000000057732 ) ) ;
#366 = VERTEX_POINT ( 'NONE', #15 ) ;
#367 = PERSON_AND_ORGANIZATION ( #8, #347 ) ;
#368 = AXIS2_PLACEMENT_3D ( 'NONE', #28, #52, #176 ) ;
#369 = CONICAL_SURFACE ( 'NONE', #54, 1.499999999999997780, 0.5235987755983001479 ) ;
#370 = LINE ( 'NONE', #214, #53 ) ;
#371 = EDGE_CURVE ( 'NONE', #393, #171, #134, .T. ) ;
#372 = FACE_OUTER_BOUND ( 'NONE', #83, .T. ) ;
#373 = PERSON_AND_ORGANIZATION_ROLE ( 'creator' ) ;
#374 = CONICAL_SURFACE ( 'NONE', #33, 1.499999999999997780, 0.5235987755983001479 ) ;
#375 = ADVANCED_FACE ( 'NONE', ( #112 ), #374, .T. ) ;
#376 = CARTESIAN_POINT ( 'NONE',  ( 7.425905380160724777E-14, -1.499999999999997780, 4.732050807568869644 ) ) ;
#377 = EDGE_CURVE ( 'NONE', #393, #59, #151, .T. ) ;
#378 = DIRECTION ( 'NONE',  ( -3.491481338843133355E-15, 0.0000000000000000000, -1.000000000000000000 ) ) ;
#379 = LOCAL_TIME ( 9, 38, 1.000000000000000000, #119 ) ;
#380 = CARTESIAN_POINT ( 'NONE',  ( 1.806973009378954368E-15, 0.5000000000000001110, 0.5000000000000057732 ) ) ;
#381 = CARTESIAN_POINT ( 'NONE',  ( 1.652186708908428881E-14, 0.0000000000000000000, 4.732050807568869644 ) ) ;
#382 = ORIENTED_EDGE ( 'NONE', *, *, #377, .T. ) ;
#383 = EDGE_CURVE ( 'NONE', #338, #297, #200, .T. ) ;
#384 = LINE ( 'NONE', #380, #363 ) ;
#385 = CARTESIAN_POINT ( 'NONE',  ( 1.745740669421586794E-15, 3.749399456654644020E-33, 0.5000000000000057732 ) ) ;
#386 = ORIENTED_EDGE ( 'NONE', *, *, #377, .F. ) ;
#387 = AXIS2_PLACEMENT_3D ( 'NONE', #385, #287, #16 ) ;
#388 = VERTEX_POINT ( 'NONE', #317 ) ;
#389 = AXIS2_PLACEMENT_3D ( 'NONE', #147, #265, #235 ) ;
#390 = MANIFOLD_SOLID_BREP ( 'Corps-Déplacer/Copier1[2]', #84 ) ;
#391 = AXIS2_PLACEMENT_3D ( 'NONE', #126, #94, #342 ) ;
#392 = ADVANCED_FACE ( 'NONE', ( #295 ), #142, .T. ) ;
#393 = VERTEX_POINT ( 'NONE', #260 ) ;
#394 = EDGE_LOOP ( 'NONE', ( #116, #90 ) ) ;
#395 = APPROVAL_ROLE ( '' ) ;
#396 = MANIFOLD_SOLID_BREP ( 'Corps-Déplacer/Copier1[1]', #253 ) ;
#397 = CARTESIAN_POINT ( 'NONE',  ( 1.316288464743861212E-13, -4.616918432785521081E-15, 37.69999999999999574 ) ) ;
#398 = CIRCLE ( 'NONE', #264, 1.200000000000000844 ) ;
#399 = LOCAL_TIME ( 9, 38, 1.000000000000000000, #206 ) ;
#400 = ORIENTED_EDGE ( 'NONE', *, *, #152, .F. ) ;
#401 = UNCERTAINTY_MEASURE_WITH_UNIT (LENGTH_MEASURE( 1.000000000000000082E-05 ), #328, 'distance_accuracy_value', 'NONE');
#402 = CC_DESIGN_PERSON_AND_ORGANIZATION_ASSIGNMENT ( #367, #125, ( #46 ) ) ;
#403 = ORIENTED_EDGE ( 'NONE', *, *, #277, .F. ) ;
#404 = CARTESIAN_POINT ( 'NONE',  ( 1.047444401652940007E-14, 0.0000000000000000000, 3.000000000000000000 ) ) ;
#405 = DIRECTION ( 'NONE',  ( -3.491481338843133355E-15, 0.0000000000000000000, -1.000000000000000000 ) ) ;
#406 = EDGE_CURVE ( 'NONE', #146, #17, #384, .T. ) ;
#407 = DIRECTION ( 'NONE',  ( 7.703719777548939909E-31, 1.000000000000000000, 2.168404344971007882E-16 ) ) ;
ENDSEC;
END-ISO-10303-21;
