ISO-10303-21;
HEADER;
FILE_DESCRIPTION (( 'STEP AP203' ),
    '1' );
FILE_NAME ('956669.step',
    '2021-10-15T09:34:28',
    ( '' ),
    ( '' ),
    'SwSTEP 2.0',
    'SolidWorks 2019',
    '' );
FILE_SCHEMA (( 'CONFIG_CONTROL_DESIGN' ));
ENDSEC;

DATA;
#1 = DATE_AND_TIME ( #203, #95 ) ;
#2 = EDGE_LOOP ( 'NONE', ( #244 ) ) ;
#3 = SECURITY_CLASSIFICATION_LEVEL ( 'unclassified' ) ;
#4 = ORGANIZATION ( 'UNSPECIFIED', 'UNSPECIFIED', '' ) ;
#5 = CALENDAR_DATE ( 2021, 15, 10 ) ;
#6 = EDGE_LOOP ( 'NONE', ( #183 ) ) ;
#7 = SHAPE_DEFINITION_REPRESENTATION ( #146, #177 ) ;
#8 = CARTESIAN_POINT ( 'NONE',  ( 6.540260583288814947E-14, 2.294014606295481751E-14, 18.73205080756886431 ) ) ;
#9 = FACE_OUTER_BOUND ( 'NONE', #2, .T. ) ;
#10 = PRODUCT ( '956669', '956669', '', ( #216 ) ) ;
#11 = DIRECTION ( 'NONE',  ( -6.162975822039278745E-30, 1.000000000000000000, -1.734723475976842002E-15 ) ) ;
#12 = CARTESIAN_POINT ( 'NONE',  ( 5.237222008264700664E-14, 1.836970198721031324E-14, 15.00000000000000178 ) ) ;
#13 = CARTESIAN_POINT ( 'NONE',  ( 1.026411572981565229E-15, 3.600167165367596957E-16, 0.2939759584456654307 ) ) ;
#14 = VERTEX_POINT ( 'NONE', #172 ) ;
#15 = FACE_BOUND ( 'NONE', #100, .T. ) ;
#16 = FACE_OUTER_BOUND ( 'NONE', #90, .T. ) ;
#17 =( LENGTH_UNIT ( ) NAMED_UNIT ( * ) SI_UNIT ( .MILLI., .METRE. ) );
#18 = PERSON_AND_ORGANIZATION_ROLE ( 'design_supplier' ) ;
#19 = APPROVAL_PERSON_ORGANIZATION ( #84, #227, #79 ) ;
#20 = ORIENTED_EDGE ( 'NONE', *, *, #43, .F. ) ;
#21 = DATE_TIME_ROLE ( 'creation_date' ) ;
#22 = ORIENTED_EDGE ( 'NONE', *, *, #81, .F. ) ;
#23 = ORIENTED_EDGE ( 'NONE', *, *, #140, .T. ) ;
#24 = PERSON_AND_ORGANIZATION ( #106, #4 ) ;
#25 = PLANE ( 'NONE',  #220 ) ;
#26 = DIRECTION ( 'NONE',  ( 6.162975822039241610E-30, -1.000000000000000000, 1.734723475976831549E-15 ) ) ;
#27 = ADVANCED_FACE ( 'NONE', ( #112 ), #241, .T. ) ;
#28 = CARTESIAN_POINT ( 'NONE',  ( 0.0000000000000000000, 0.0000000000000000000, 0.0000000000000000000 ) ) ;
#29 = DIRECTION ( 'NONE',  ( 0.0000000000000000000, -1.000000000000000000, 0.0000000000000000000 ) ) ;
#30 = CARTESIAN_POINT ( 'NONE',  ( 5.888741295776782734E-14, 2.065492402508265531E-14, 16.86602540378450499 ) ) ;
#31 = CLOSED_SHELL ( 'NONE', ( #147, #242, #127, #225, #78, #215 ) ) ;
#32 = AXIS2_PLACEMENT_3D ( 'NONE', #133, #58, #76 ) ;
#33 = DIRECTION ( 'NONE',  ( 0.0000000000000000000, 1.000000000000000000, 0.0000000000000000000 ) ) ;
#34 = ADVANCED_FACE ( 'NONE', ( #9 ), #25, .T. ) ;
#35 = DIRECTION ( 'NONE',  ( -4.292072447493192405E-30, 1.000000000000000000, -1.208110992198594630E-15 ) ) ;
#36 = CC_DESIGN_PERSON_AND_ORGANIZATION_ASSIGNMENT ( #120, #179, ( #129 ) ) ;
#37 = AXIS2_PLACEMENT_3D ( 'NONE', #28, #110, #192 ) ;
#38 = SECURITY_CLASSIFICATION ( '', '', #3 ) ;
#39 = PERSON_AND_ORGANIZATION ( #106, #4 ) ;
#40 = CARTESIAN_POINT ( 'NONE',  ( 1.026411572981561679E-15, 0.8076923076919997335, 0.2939759584456644315 ) ) ;
#41 = APPROVAL_STATUS ( 'not_yet_approved' ) ;
#42 = AXIS2_PLACEMENT_3D ( 'NONE', #175, #156, #33 ) ;
#43 = EDGE_CURVE ( 'NONE', #234, #234, #153, .T. ) ;
#44 = APPROVAL_DATE_TIME ( #199, #55 ) ;
#45 = ORIENTED_EDGE ( 'NONE', *, *, #200, .T. ) ;
#46 = COORDINATED_UNIVERSAL_TIME_OFFSET ( 1, 0, .AHEAD. ) ;
#47 = CC_DESIGN_APPROVAL ( #55, ( #129 ) ) ;
#48 = CARTESIAN_POINT ( 'NONE',  ( 1.745740669421566678E-13, 8.998558695971067645E-33, 50.00000000000000000 ) ) ;
#49 = FACE_BOUND ( 'NONE', #85, .T. ) ;
#50 = CYLINDRICAL_SURFACE ( 'NONE', #74, 0.9999999999999895639 ) ;
#51 = DIRECTION ( 'NONE',  ( 3.491481338843133355E-15, 1.224646799147354045E-15, 1.000000000000000000 ) ) ;
#52 = DIRECTION ( 'NONE',  ( -4.622231866529414392E-30, 1.000000000000000000, -1.301042606982618929E-15 ) ) ;
#53 = ADVANCED_FACE ( 'NONE', ( #189, #230 ), #50, .T. ) ;
#54 =( NAMED_UNIT ( * ) PLANE_ANGLE_UNIT ( ) SI_UNIT ( $, .RADIAN. ) );
#55 = APPROVAL ( #219, 'UNSPECIFIED' ) ;
#56 = CIRCLE ( 'NONE', #165, 0.9999999999999993339 ) ;
#57 = APPLICATION_PROTOCOL_DEFINITION ( 'international standard', 'config_control_design', 1994, #247 ) ;
#58 = DIRECTION ( 'NONE',  ( -3.491481338843133355E-15, -1.224646799147354045E-15, -1.000000000000000000 ) ) ;
#59 = CALENDAR_DATE ( 2021, 15, 10 ) ;
#60 = EDGE_LOOP ( 'NONE', ( #105 ) ) ;
#61 = AXIS2_PLACEMENT_3D ( 'NONE', #193, #250, #66 ) ;
#62 = CC_DESIGN_DATE_AND_TIME_ASSIGNMENT ( #101, #186, ( #38 ) ) ;
#63 = APPROVAL_DATE_TIME ( #137, #227 ) ;
#64 = ORIENTED_EDGE ( 'NONE', *, *, #235, .T. ) ;
#65 = ORIENTED_EDGE ( 'NONE', *, *, #140, .F. ) ;
#66 = DIRECTION ( 'NONE',  ( 4.237045877651921679E-30, -1.000000000000000000, 1.246832498358330888E-15 ) ) ;
#67 = DIRECTION ( 'NONE',  ( 0.0000000000000000000, -1.000000000000000000, 0.0000000000000000000 ) ) ;
#68 = MANIFOLD_SOLID_BREP ( 'Corps-Déplacer/Copier1[1]', #31 ) ;
#69 = FACE_OUTER_BOUND ( 'NONE', #123, .T. ) ;
#70 = AXIS2_PLACEMENT_3D ( 'NONE', #30, #51, #166 ) ;
#71 = DIRECTION ( 'NONE',  ( -3.491481338843133355E-15, -1.224646799147354045E-15, -1.000000000000000000 ) ) ;
#72 = DIRECTION ( 'NONE',  ( 3.491481338843133355E-15, -1.224646799147353207E-16, 1.000000000000000000 ) ) ;
#73 = VERTEX_POINT ( 'NONE', #40 ) ;
#74 = AXIS2_PLACEMENT_3D ( 'NONE', #92, #170, #52 ) ;
#75 = DIRECTION ( 'NONE',  ( 0.0000000000000000000, 0.0000000000000000000, 1.000000000000000000 ) ) ;
#76 = DIRECTION ( 'NONE',  ( -4.622231866529414392E-30, 1.000000000000000000, -1.301042606982618929E-15 ) ) ;
#77 = CARTESIAN_POINT ( 'NONE',  ( 1.383421872661542308E-15, 0.9999999999999997780, 0.3962277722268808811 ) ) ;
#78 = ADVANCED_FACE ( 'NONE', ( #49, #232 ), #157, .T. ) ;
#79 = APPROVAL_ROLE ( '' ) ;
#80 = EDGE_LOOP ( 'NONE', ( #223 ) ) ;
#81 = EDGE_CURVE ( 'NONE', #261, #261, #257, .T. ) ;
#82 = UNCERTAINTY_MEASURE_WITH_UNIT (LENGTH_MEASURE( 1.000000000000000082E-05 ), #17, 'distance_accuracy_value', 'NONE');
#83 = EDGE_CURVE ( 'NONE', #116, #116, #184, .T. ) ;
#84 = PERSON_AND_ORGANIZATION ( #106, #4 ) ;
#85 = EDGE_LOOP ( 'NONE', ( #188 ) ) ;
#86 = CARTESIAN_POINT ( 'NONE',  ( 2.094888803305880013E-14, 7.347880794884124666E-15, 6.000000000000000000 ) ) ;
#87 = ADVANCED_FACE ( 'NONE', ( #131, #111 ), #173, .T. ) ;
#88 = CARTESIAN_POINT ( 'NONE',  ( 1.735266225405037467E-13, -6.086494591762345225E-15, 49.70000000000000284 ) ) ;
#89 = CARTESIAN_POINT ( 'NONE',  ( 1.745740669421566678E-13, -6.123233995736766085E-15, 50.00000000000000000 ) ) ;
#90 = EDGE_LOOP ( 'NONE', ( #65 ) ) ;
#91 = CC_DESIGN_SECURITY_CLASSIFICATION ( #38, ( #258 ) ) ;
#92 = CARTESIAN_POINT ( 'NONE',  ( -3.491481338843130200E-15, -1.224646799147353059E-15, -0.9999999999999991118 ) ) ;
#93 = VERTEX_POINT ( 'NONE', #115 ) ;
#94 = AXIS2_PLACEMENT_3D ( 'NONE', #48, #108, #124 ) ;
#95 = LOCAL_TIME ( 11, 34, 28.00000000000000000, #239 ) ;
#96 = VERTEX_POINT ( 'NONE', #195 ) ;
#97 = CARTESIAN_POINT ( 'NONE',  ( 1.026411572981565229E-15, 3.600167165367596957E-16, 0.2939759584456654307 ) ) ;
#98 = DIRECTION ( 'NONE',  ( -4.237045877651921679E-30, 1.000000000000000000, -1.246832498358330888E-15 ) ) ;
#99 =( GEOMETRIC_REPRESENTATION_CONTEXT ( 3 ) GLOBAL_UNCERTAINTY_ASSIGNED_CONTEXT ( ( #82 ) ) GLOBAL_UNIT_ASSIGNED_CONTEXT ( ( #17, #54, #174 ) ) REPRESENTATION_CONTEXT ( 'NONE', 'WORKASPACE' ) );
#100 = EDGE_LOOP ( 'NONE', ( #45 ) ) ;
#101 = DATE_AND_TIME ( #5, #143 ) ;
#102 = AXIS2_PLACEMENT_3D ( 'NONE', #88, #255, #205 ) ;
#103 = PERSON_AND_ORGANIZATION_ROLE ( 'classification_officer' ) ;
#104 = COORDINATED_UNIVERSAL_TIME_OFFSET ( 1, 0, .AHEAD. ) ;
#105 = ORIENTED_EDGE ( 'NONE', *, *, #235, .F. ) ;
#106 = PERSON ( 'UNSPECIFIED', 'UNSPECIFIED', 'UNSPECIFIED', ('UNSPECIFIED'), ('UNSPECIFIED'), ('UNSPECIFIED') ) ;
#107 = AXIS2_PLACEMENT_3D ( 'NONE', #8, #126, #26 ) ;
#108 = DIRECTION ( 'NONE',  ( -3.491481338843133355E-15, 1.224646799147353207E-16, -1.000000000000000000 ) ) ;
#109 = CC_DESIGN_PERSON_AND_ORGANIZATION_ASSIGNMENT ( #24, #103, ( #38 ) ) ;
#110 = DIRECTION ( 'NONE',  ( -3.491481338843133355E-15, 1.224646799147353207E-16, -1.000000000000000000 ) ) ;
#111 = FACE_OUTER_BOUND ( 'NONE', #162, .T. ) ;
#112 = FACE_OUTER_BOUND ( 'NONE', #210, .T. ) ;
#113 = CARTESIAN_POINT ( 'NONE',  ( 5.888741295776783996E-14, -1.499999999999974687, 16.86602540378450854 ) ) ;
#114 = DIRECTION ( 'NONE',  ( 3.491481338843133355E-15, -1.224646799147353207E-16, 1.000000000000000000 ) ) ;
#115 = CARTESIAN_POINT ( 'NONE',  ( 1.745740669421566678E-13, 1.199999999999995515, 50.00000000000000000 ) ) ;
#116 = VERTEX_POINT ( 'NONE', #256 ) ;
#117 = CARTESIAN_POINT ( 'NONE',  ( 1.735266225405037467E-13, 1.499999999999995559, 49.70000000000000284 ) ) ;
#118 = CALENDAR_DATE ( 2021, 15, 10 ) ;
#119 = ORIENTED_EDGE ( 'NONE', *, *, #81, .T. ) ;
#120 = PERSON_AND_ORGANIZATION ( #106, #4 ) ;
#121 = ORIENTED_EDGE ( 'NONE', *, *, #197, .T. ) ;
#122 = CALENDAR_DATE ( 2021, 15, 10 ) ;
#123 = EDGE_LOOP ( 'NONE', ( #23 ) ) ;
#124 = DIRECTION ( 'NONE',  ( 4.275831445896958607E-31, 1.000000000000000000, 1.224646799147353207E-16 ) ) ;
#125 = CIRCLE ( 'NONE', #228, 0.9999999999999895639 ) ;
#126 = DIRECTION ( 'NONE',  ( 3.491481338843133355E-15, 1.224646799147354045E-15, 1.000000000000000000 ) ) ;
#127 = ADVANCED_FACE ( 'NONE', ( #144 ), #128, .F. ) ;
#128 = PLANE ( 'NONE',  #94 ) ;
#129 = PRODUCT_DEFINITION ( 'UNKNOWN', '', #258, #135 ) ;
#130 = DIRECTION ( 'NONE',  ( -3.491481338843133355E-15, 1.224646799147353207E-16, -1.000000000000000000 ) ) ;
#131 = FACE_BOUND ( 'NONE', #60, .T. ) ;
#132 = AXIS2_PLACEMENT_3D ( 'NONE', #97, #211, #35 ) ;
#133 = CARTESIAN_POINT ( 'NONE',  ( -3.491481338843130200E-15, -1.224646799147353059E-15, -0.9999999999999991118 ) ) ;
#134 = PERSON_AND_ORGANIZATION ( #106, #4 ) ;
#135 = DESIGN_CONTEXT ( 'detailed design', #247, 'design' ) ;
#136 = PERSON_AND_ORGANIZATION ( #106, #4 ) ;
#137 = DATE_AND_TIME ( #59, #185 ) ;
#138 = AXIS2_PLACEMENT_3D ( 'NONE', #86, #130, #29 ) ;
#139 = EDGE_LOOP ( 'NONE', ( #180 ) ) ;
#140 = EDGE_CURVE ( 'NONE', #96, #96, #125, .T. ) ;
#141 = DATE_AND_TIME ( #118, #190 ) ;
#142 = EDGE_LOOP ( 'NONE', ( #20 ) ) ;
#143 = LOCAL_TIME ( 11, 34, 28.00000000000000000, #187 ) ;
#144 = FACE_OUTER_BOUND ( 'NONE', #80, .T. ) ;
#145 = FACE_OUTER_BOUND ( 'NONE', #194, .T. ) ;
#146 = PRODUCT_DEFINITION_SHAPE ( 'NONE', 'NONE',  #129 ) ;
#147 = ADVANCED_FACE ( 'NONE', ( #254, #145 ), #208, .T. ) ;
#148 = CIRCLE ( 'NONE', #217, 0.9999999999999799050 ) ;
#149 = PLANE ( 'NONE',  #243 ) ;
#150 = AXIS2_PLACEMENT_3D ( 'NONE', #89, #168, #253 ) ;
#151 = DIRECTION ( 'NONE',  ( -4.275831445896958607E-31, -1.000000000000000000, -1.224646799147353207E-16 ) ) ;
#152 = CARTESIAN_POINT ( 'NONE',  ( 2.094888803305880013E-14, 1.124819836996384037E-32, 6.000000000000000000 ) ) ;
#153 = CIRCLE ( 'NONE', #70, 1.499999999999995337 ) ;
#154 = CONICAL_SURFACE ( 'NONE', #42, 1.200000000000001732, 0.7853981633974453924 ) ;
#155 = FACE_OUTER_BOUND ( 'NONE', #191, .T. ) ;
#156 = DIRECTION ( 'NONE',  ( -3.491481338843133355E-15, 1.224646799147353207E-16, -1.000000000000000000 ) ) ;
#157 = CONICAL_SURFACE ( 'NONE', #107, 1.999999999999971800, 0.2617993877991484086 ) ;
#158 = DIRECTION ( 'NONE',  ( -4.275831445896958607E-31, -1.000000000000000000, -1.224646799147353207E-16 ) ) ;
#159 = PERSON_AND_ORGANIZATION_ROLE ( 'creator' ) ;
#160 = ORIENTED_EDGE ( 'NONE', *, *, #249, .F. ) ;
#161 = CC_DESIGN_APPROVAL ( #227, ( #38 ) ) ;
#162 = EDGE_LOOP ( 'NONE', ( #238 ) ) ;
#163 = COORDINATED_UNIVERSAL_TIME_OFFSET ( 1, 0, .AHEAD. ) ;
#164 = PERSON_AND_ORGANIZATION ( #106, #4 ) ;
#165 = AXIS2_PLACEMENT_3D ( 'NONE', #176, #196, #98 ) ;
#166 = DIRECTION ( 'NONE',  ( 8.217301096052232464E-30, -1.000000000000000000, 2.312964634635750155E-15 ) ) ;
#167 = CARTESIAN_POINT ( 'NONE',  ( 2.094888803305880013E-14, 7.347880794884124666E-15, 6.000000000000000000 ) ) ;
#168 = DIRECTION ( 'NONE',  ( -3.491481338843133355E-15, 1.224646799147353207E-16, -1.000000000000000000 ) ) ;
#169 = CC_DESIGN_PERSON_AND_ORGANIZATION_ASSIGNMENT ( #164, #18, ( #258 ) ) ;
#170 = DIRECTION ( 'NONE',  ( -3.491481338843133355E-15, -1.224646799147354045E-15, -1.000000000000000000 ) ) ;
#171 = DIRECTION ( 'NONE',  ( 3.491481338843133355E-15, 1.224646799147354045E-15, 1.000000000000000000 ) ) ;
#172 = CARTESIAN_POINT ( 'NONE',  ( 5.237222008264700033E-14, 0.9999999999999983347, 15.00000000000000000 ) ) ;
#173 = CONICAL_SURFACE ( 'NONE', #61, 0.9999999999999993339, 1.082104136236486047 ) ;
#174 =( NAMED_UNIT ( * ) SI_UNIT ( $, .STERADIAN. ) SOLID_ANGLE_UNIT ( ) );
#175 = CARTESIAN_POINT ( 'NONE',  ( 1.745740669421566678E-13, -6.123233995736766085E-15, 50.00000000000000000 ) ) ;
#176 = CARTESIAN_POINT ( 'NONE',  ( 1.383421872661546450E-15, 4.852390729909381590E-16, 0.3962277722268821023 ) ) ;
#177 = ADVANCED_BREP_SHAPE_REPRESENTATION ( '956669', ( #68, #240, #204 ), #99 ) ;
#178 = CIRCLE ( 'NONE', #132, 0.8076923076919994005 ) ;
#179 = PERSON_AND_ORGANIZATION_ROLE ( 'creator' ) ;
#180 = ORIENTED_EDGE ( 'NONE', *, *, #83, .T. ) ;
#181 = APPROVAL_STATUS ( 'not_yet_approved' ) ;
#182 = PRODUCT_RELATED_PRODUCT_CATEGORY ( 'detail', '', ( #10 ) ) ;
#183 = ORIENTED_EDGE ( 'NONE', *, *, #43, .T. ) ;
#184 = CIRCLE ( 'NONE', #138, 0.9999999999999895639 ) ;
#185 = LOCAL_TIME ( 11, 34, 28.00000000000000000, #104 ) ;
#186 = DATE_TIME_ROLE ( 'classification_date' ) ;
#187 = COORDINATED_UNIVERSAL_TIME_OFFSET ( 1, 0, .AHEAD. ) ;
#188 = ORIENTED_EDGE ( 'NONE', *, *, #197, .F. ) ;
#189 = FACE_OUTER_BOUND ( 'NONE', #139, .T. ) ;
#190 = LOCAL_TIME ( 11, 34, 28.00000000000000000, #163 ) ;
#191 = EDGE_LOOP ( 'NONE', ( #22 ) ) ;
#192 = DIRECTION ( 'NONE',  ( 4.275831445896958607E-31, 1.000000000000000000, 1.224646799147353207E-16 ) ) ;
#193 = CARTESIAN_POINT ( 'NONE',  ( 1.383421872661546450E-15, 4.852390729909381590E-16, 0.3962277722268821023 ) ) ;
#194 = EDGE_LOOP ( 'NONE', ( #119 ) ) ;
#195 = CARTESIAN_POINT ( 'NONE',  ( 2.094888803305880013E-14, -0.9999999999999822364, 6.000000000000000000 ) ) ;
#196 = DIRECTION ( 'NONE',  ( -3.491481338843133355E-15, -1.224646799147354045E-15, -1.000000000000000000 ) ) ;
#197 = EDGE_CURVE ( 'NONE', #14, #14, #148, .T. ) ;
#198 = APPLICATION_PROTOCOL_DEFINITION ( 'international standard', 'config_control_design', 1994, #224 ) ;
#199 = DATE_AND_TIME ( #122, #218 ) ;
#200 = EDGE_CURVE ( 'NONE', #93, #93, #207, .T. ) ;
#201 = APPROVAL ( #41, 'UNSPECIFIED' ) ;
#202 = EDGE_LOOP ( 'NONE', ( #121 ) ) ;
#203 = CALENDAR_DATE ( 2021, 15, 10 ) ;
#204 = AXIS2_PLACEMENT_3D ( 'NONE', #259, #75, #214 ) ;
#205 = DIRECTION ( 'NONE',  ( 0.0000000000000000000, 1.000000000000000000, 0.0000000000000000000 ) ) ;
#206 = AXIS2_PLACEMENT_3D ( 'NONE', #13, #171, #226 ) ;
#207 = CIRCLE ( 'NONE', #150, 1.200000000000001732 ) ;
#208 = CYLINDRICAL_SURFACE ( 'NONE', #37, 1.499999999999995337 ) ;
#209 = CC_DESIGN_PERSON_AND_ORGANIZATION_ASSIGNMENT ( #136, #159, ( #258 ) ) ;
#210 = EDGE_LOOP ( 'NONE', ( #64 ) ) ;
#211 = DIRECTION ( 'NONE',  ( -3.491481338843133355E-15, -1.224646799147354045E-15, -1.000000000000000000 ) ) ;
#212 = APPROVAL_PERSON_ORGANIZATION ( #134, #55, #246 ) ;
#213 = VERTEX_POINT ( 'NONE', #77 ) ;
#214 = DIRECTION ( 'NONE',  ( 1.000000000000000000, 0.0000000000000000000, 0.0000000000000000000 ) ) ;
#215 = ADVANCED_FACE ( 'NONE', ( #69 ), #149, .F. ) ;
#216 = MECHANICAL_CONTEXT ( 'NONE', #224, 'mechanical' ) ;
#217 = AXIS2_PLACEMENT_3D ( 'NONE', #12, #71, #11 ) ;
#218 = LOCAL_TIME ( 11, 34, 28.00000000000000000, #46 ) ;
#219 = APPROVAL_STATUS ( 'not_yet_approved' ) ;
#220 = AXIS2_PLACEMENT_3D ( 'NONE', #152, #72, #151 ) ;
#221 = EDGE_LOOP ( 'NONE', ( #160 ) ) ;
#222 = APPROVAL_ROLE ( '' ) ;
#223 = ORIENTED_EDGE ( 'NONE', *, *, #200, .F. ) ;
#224 = APPLICATION_CONTEXT ( 'configuration controlled 3d designs of mechanical parts and assemblies' ) ;
#225 = ADVANCED_FACE ( 'NONE', ( #233, #16 ), #236, .T. ) ;
#226 = DIRECTION ( 'NONE',  ( 4.292072447493191704E-30, -1.000000000000000000, 1.208110992198594432E-15 ) ) ;
#227 = APPROVAL ( #181, 'UNSPECIFIED' ) ;
#228 = AXIS2_PLACEMENT_3D ( 'NONE', #167, #251, #67 ) ;
#229 = CARTESIAN_POINT ( 'NONE',  ( 2.094888803305880013E-14, 1.124819836996384037E-32, 6.000000000000000000 ) ) ;
#230 = FACE_OUTER_BOUND ( 'NONE', #221, .T. ) ;
#231 = CC_DESIGN_PERSON_AND_ORGANIZATION_ASSIGNMENT ( #39, #260, ( #10 ) ) ;
#232 = FACE_OUTER_BOUND ( 'NONE', #142, .T. ) ;
#233 = FACE_OUTER_BOUND ( 'NONE', #202, .T. ) ;
#234 = VERTEX_POINT ( 'NONE', #113 ) ;
#235 = EDGE_CURVE ( 'NONE', #73, #73, #178, .T. ) ;
#236 = CYLINDRICAL_SURFACE ( 'NONE', #32, 0.9999999999999895639 ) ;
#237 = PERSON_AND_ORGANIZATION ( #106, #4 ) ;
#238 = ORIENTED_EDGE ( 'NONE', *, *, #249, .T. ) ;
#239 = COORDINATED_UNIVERSAL_TIME_OFFSET ( 1, 0, .AHEAD. ) ;
#240 = MANIFOLD_SOLID_BREP ( 'Corps-Déplacer/Copier1[2]', #262 ) ;
#241 = CONICAL_SURFACE ( 'NONE', #206, 0.8076923076919995115, 1.221730476396032161 ) ;
#242 = ADVANCED_FACE ( 'NONE', ( #155, #15 ), #154, .T. ) ;
#243 = AXIS2_PLACEMENT_3D ( 'NONE', #229, #114, #158 ) ;
#244 = ORIENTED_EDGE ( 'NONE', *, *, #83, .F. ) ;
#245 = APPROVAL_DATE_TIME ( #1, #201 ) ;
#246 = APPROVAL_ROLE ( '' ) ;
#247 = APPLICATION_CONTEXT ( 'configuration controlled 3d designs of mechanical parts and assemblies' ) ;
#248 = APPROVAL_PERSON_ORGANIZATION ( #237, #201, #222 ) ;
#249 = EDGE_CURVE ( 'NONE', #213, #213, #56, .T. ) ;
#250 = DIRECTION ( 'NONE',  ( 3.491481338843133355E-15, 1.224646799147354045E-15, 1.000000000000000000 ) ) ;
#251 = DIRECTION ( 'NONE',  ( -3.491481338843133355E-15, 1.224646799147353207E-16, -1.000000000000000000 ) ) ;
#252 = CC_DESIGN_DATE_AND_TIME_ASSIGNMENT ( #141, #21, ( #129 ) ) ;
#253 = DIRECTION ( 'NONE',  ( 0.0000000000000000000, 1.000000000000000000, 0.0000000000000000000 ) ) ;
#254 = FACE_OUTER_BOUND ( 'NONE', #6, .T. ) ;
#255 = DIRECTION ( 'NONE',  ( -3.491481338843133355E-15, 1.224646799147353207E-16, -1.000000000000000000 ) ) ;
#256 = CARTESIAN_POINT ( 'NONE',  ( 2.094888803305880013E-14, -0.9999999999999822364, 6.000000000000000000 ) ) ;
#257 = CIRCLE ( 'NONE', #102, 1.500000000000001554 ) ;
#258 = PRODUCT_DEFINITION_FORMATION_WITH_SPECIFIED_SOURCE ( 'ANY', '', #10, .NOT_KNOWN. ) ;
#259 = CARTESIAN_POINT ( 'NONE',  ( 0.0000000000000000000, 0.0000000000000000000, 0.0000000000000000000 ) ) ;
#260 = PERSON_AND_ORGANIZATION_ROLE ( 'design_owner' ) ;
#261 = VERTEX_POINT ( 'NONE', #117 ) ;
#262 = CLOSED_SHELL ( 'NONE', ( #34, #27, #87, #53 ) ) ;
#263 = CC_DESIGN_APPROVAL ( #201, ( #258 ) ) ;
ENDSEC;
END-ISO-10303-21;
