ISO-10303-21;
HEADER;
FILE_DESCRIPTION (( 'STEP AP203' ),
    '1' );
FILE_NAME ('956668.step',
    '2021-10-15T09:34:27',
    ( '' ),
    ( '' ),
    'SwSTEP 2.0',
    'SolidWorks 2019',
    '' );
FILE_SCHEMA (( 'CONFIG_CONTROL_DESIGN' ));
ENDSEC;

DATA;
#1 = APPROVAL_ROLE ( '' ) ;
#2 = APPLICATION_CONTEXT ( 'configuration controlled 3d designs of mechanical parts and assemblies' ) ;
#3 = ORIENTED_EDGE ( 'NONE', *, *, #62, .T. ) ;
#4 = APPROVAL_ROLE ( '' ) ;
#5 = LOCAL_TIME ( 11, 34, 27.00000000000000000, #169 ) ;
#6 = EDGE_LOOP ( 'NONE', ( #217 ) ) ;
#7 = COORDINATED_UNIVERSAL_TIME_OFFSET ( 1, 0, .AHEAD. ) ;
#8 = ORIENTED_EDGE ( 'NONE', *, *, #182, .T. ) ;
#9 = CIRCLE ( 'NONE', #14, 0.8999999999999993561 ) ;
#10 = APPROVAL_PERSON_ORGANIZATION ( #47, #73, #1 ) ;
#11 = DIRECTION ( 'NONE',  ( 3.491481338843133355E-15, -1.224646799147353207E-16, 1.000000000000000000 ) ) ;
#12 = ORIENTED_EDGE ( 'NONE', *, *, #171, .T. ) ;
#13 = DIRECTION ( 'NONE',  ( -3.491481338843133355E-15, 1.224646799147353207E-16, -1.000000000000000000 ) ) ;
#14 = AXIS2_PLACEMENT_3D ( 'NONE', #256, #197, #179 ) ;
#15 = DIRECTION ( 'NONE',  ( 6.162975822039243012E-30, -1.000000000000000000, 1.734723475976831944E-15 ) ) ;
#16 = PLANE ( 'NONE',  #249 ) ;
#17 = DIRECTION ( 'NONE',  ( -3.491481338843133355E-15, -1.224646799147354045E-15, -1.000000000000000000 ) ) ;
#18 = AXIS2_PLACEMENT_3D ( 'NONE', #227, #40, #98 ) ;
#19 = CARTESIAN_POINT ( 'NONE',  ( 9.237704156834082916E-16, 3.240150448830835585E-16, 0.2645783626010987932 ) ) ;
#20 = PERSON_AND_ORGANIZATION_ROLE ( 'design_owner' ) ;
#21 = PRODUCT_DEFINITION_FORMATION_WITH_SPECIFIED_SOURCE ( 'ANY', '', #38, .NOT_KNOWN. ) ;
#22 = EDGE_LOOP ( 'NONE', ( #173 ) ) ;
#23 = DATE_TIME_ROLE ( 'creation_date' ) ;
#24 = ORIENTED_EDGE ( 'NONE', *, *, #113, .F. ) ;
#25 = APPROVAL_ROLE ( '' ) ;
#26 = AXIS2_PLACEMENT_3D ( 'NONE', #33, #13, #154 ) ;
#27 = DATE_AND_TIME ( #216, #5 ) ;
#28 = EDGE_LOOP ( 'NONE', ( #141 ) ) ;
#29 = EDGE_CURVE ( 'NONE', #261, #261, #186, .T. ) ;
#30 = CARTESIAN_POINT ( 'NONE',  ( 1.735266225405037467E-13, -6.086494591762345225E-15, 49.70000000000000284 ) ) ;
#31 = CIRCLE ( 'NONE', #45, 0.8999999999999795941 ) ;
#32 = CARTESIAN_POINT ( 'NONE',  ( 9.237704156834082916E-16, 3.240150448830835585E-16, 0.2645783626010987932 ) ) ;
#33 = CARTESIAN_POINT ( 'NONE',  ( 1.745740669421566678E-13, -6.123233995736766085E-15, 50.00000000000000000 ) ) ;
#34 = DIRECTION ( 'NONE',  ( -4.275831445896958607E-31, -1.000000000000000000, -1.224646799147353207E-16 ) ) ;
#35 = AXIS2_PLACEMENT_3D ( 'NONE', #19, #58, #136 ) ;
#36 = FACE_OUTER_BOUND ( 'NONE', #86, .T. ) ;
#37 = DIRECTION ( 'NONE',  ( -3.491481338843133355E-15, 1.224646799147353207E-16, -1.000000000000000000 ) ) ;
#38 = PRODUCT ( '956668', '956668', '', ( #139 ) ) ;
#39 = CARTESIAN_POINT ( 'NONE',  ( 1.885399922975292327E-14, -0.8999999999999829248, 5.400000000000000355 ) ) ;
#40 = DIRECTION ( 'NONE',  ( -3.491481338843133355E-15, 1.224646799147353207E-16, -1.000000000000000000 ) ) ;
#41 = PERSON_AND_ORGANIZATION_ROLE ( 'creator' ) ;
#42 = EDGE_LOOP ( 'NONE', ( #123 ) ) ;
#43 = CC_DESIGN_PERSON_AND_ORGANIZATION_ASSIGNMENT ( #166, #122, ( #83 ) ) ;
#44 = COORDINATED_UNIVERSAL_TIME_OFFSET ( 1, 0, .AHEAD. ) ;
#45 = AXIS2_PLACEMENT_3D ( 'NONE', #93, #17, #225 ) ;
#46 = EDGE_LOOP ( 'NONE', ( #212 ) ) ;
#47 = PERSON_AND_ORGANIZATION ( #101, #246 ) ;
#48 = DIRECTION ( 'NONE',  ( 0.0000000000000000000, 1.000000000000000000, 0.0000000000000000000 ) ) ;
#49 = CARTESIAN_POINT ( 'NONE',  ( 1.885399922975292327E-14, 1.124819836996384037E-32, 5.400000000000000355 ) ) ;
#50 = CARTESIAN_POINT ( 'NONE',  ( 1.245079685395391253E-15, 4.367151656918441360E-16, 0.3566049950041937922 ) ) ;
#51 = FACE_OUTER_BOUND ( 'NONE', #170, .T. ) ;
#52 = DIRECTION ( 'NONE',  ( -3.491481338843133355E-15, -1.224646799147354045E-15, -1.000000000000000000 ) ) ;
#53 = FACE_OUTER_BOUND ( 'NONE', #144, .T. ) ;
#54 = PRODUCT_DEFINITION ( 'UNKNOWN', '', #21, #81 ) ;
#55 = DIRECTION ( 'NONE',  ( 0.0000000000000000000, 0.0000000000000000000, 1.000000000000000000 ) ) ;
#56 = PRODUCT_DEFINITION_SHAPE ( 'NONE', 'NONE',  #54 ) ;
#57 = CIRCLE ( 'NONE', #199, 1.499999999999995337 ) ;
#58 = DIRECTION ( 'NONE',  ( 3.491481338843133355E-15, 1.224646799147354045E-15, 1.000000000000000000 ) ) ;
#59 = CARTESIAN_POINT ( 'NONE',  ( 0.0000000000000000000, 0.0000000000000000000, 0.0000000000000000000 ) ) ;
#60 = APPROVAL_DATE_TIME ( #172, #73 ) ;
#61 = APPROVAL_PERSON_ORGANIZATION ( #67, #160, #4 ) ;
#62 = EDGE_CURVE ( 'NONE', #263, #263, #66, .T. ) ;
#63 = APPROVAL_STATUS ( 'not_yet_approved' ) ;
#64 = EDGE_LOOP ( 'NONE', ( #193 ) ) ;
#65 = EDGE_LOOP ( 'NONE', ( #8 ) ) ;
#66 = CIRCLE ( 'NONE', #163, 0.7269230769227995603 ) ;
#67 = PERSON_AND_ORGANIZATION ( #101, #246 ) ;
#68 = PLANE ( 'NONE',  #97 ) ;
#69 = CARTESIAN_POINT ( 'NONE',  ( -3.491481338843130200E-15, -1.224646799147353059E-15, -0.9999999999999991118 ) ) ;
#70 = FACE_OUTER_BOUND ( 'NONE', #167, .T. ) ;
#71 = CARTESIAN_POINT ( 'NONE',  ( 1.885399922975292327E-14, 1.124819836996384037E-32, 5.400000000000000355 ) ) ;
#72 = CYLINDRICAL_SURFACE ( 'NONE', #164, 0.8999999999999895861 ) ;
#73 = APPROVAL ( #147, 'UNSPECIFIED' ) ;
#74 = CARTESIAN_POINT ( 'NONE',  ( 9.237704156834053334E-16, 0.7269230769227998934, 0.2645783626010979050 ) ) ;
#75 = CARTESIAN_POINT ( 'NONE',  ( 6.019045153279194225E-14, -1.499999999999974243, 17.23923048454139462 ) ) ;
#76 = CARTESIAN_POINT ( 'NONE',  ( 1.745740669421566678E-13, 1.199999999999995515, 50.00000000000000000 ) ) ;
#77 = AXIS2_PLACEMENT_3D ( 'NONE', #30, #155, #48 ) ;
#78 = ADVANCED_FACE ( 'NONE', ( #220 ), #16, .T. ) ;
#79 = SHAPE_DEFINITION_REPRESENTATION ( #56, #131 ) ;
#80 = PERSON_AND_ORGANIZATION_ROLE ( 'creator' ) ;
#81 = DESIGN_CONTEXT ( 'detailed design', #2, 'design' ) ;
#82 = ADVANCED_FACE ( 'NONE', ( #175, #94 ), #157, .T. ) ;
#83 = SECURITY_CLASSIFICATION ( '', '', #124 ) ;
#84 = APPROVAL_DATE_TIME ( #106, #160 ) ;
#85 = CALENDAR_DATE ( 2021, 15, 10 ) ;
#86 = EDGE_LOOP ( 'NONE', ( #189 ) ) ;
#87 = CALENDAR_DATE ( 2021, 15, 10 ) ;
#88 = CIRCLE ( 'NONE', #18, 0.8999999999999895861 ) ;
#89 = CYLINDRICAL_SURFACE ( 'NONE', #127, 0.8999999999999895861 ) ;
#90 = DIRECTION ( 'NONE',  ( 3.491481338843133355E-15, 1.224646799147354045E-15, 1.000000000000000000 ) ) ;
#91 = CC_DESIGN_PERSON_AND_ORGANIZATION_ASSIGNMENT ( #259, #20, ( #38 ) ) ;
#92 = FACE_BOUND ( 'NONE', #64, .T. ) ;
#93 = CARTESIAN_POINT ( 'NONE',  ( 5.237222008264700664E-14, 1.836970198721031324E-14, 15.00000000000000178 ) ) ;
#94 = FACE_OUTER_BOUND ( 'NONE', #103, .T. ) ;
#95 = ADVANCED_FACE ( 'NONE', ( #110 ), #240, .F. ) ;
#96 = VERTEX_POINT ( 'NONE', #165 ) ;
#97 = AXIS2_PLACEMENT_3D ( 'NONE', #129, #196, #218 ) ;
#98 = DIRECTION ( 'NONE',  ( 0.0000000000000000000, -1.000000000000000000, 0.0000000000000000000 ) ) ;
#99 =( NAMED_UNIT ( * ) PLANE_ANGLE_UNIT ( ) SI_UNIT ( $, .RADIAN. ) );
#100 = PERSON_AND_ORGANIZATION ( #101, #246 ) ;
#101 = PERSON ( 'UNSPECIFIED', 'UNSPECIFIED', 'UNSPECIFIED', ('UNSPECIFIED'), ('UNSPECIFIED'), ('UNSPECIFIED') ) ;
#102 = COORDINATED_UNIVERSAL_TIME_OFFSET ( 1, 0, .AHEAD. ) ;
#103 = EDGE_LOOP ( 'NONE', ( #253 ) ) ;
#104 =( GEOMETRIC_REPRESENTATION_CONTEXT ( 3 ) GLOBAL_UNCERTAINTY_ASSIGNED_CONTEXT ( ( #230 ) ) GLOBAL_UNIT_ASSIGNED_CONTEXT ( ( #161, #99, #206 ) ) REPRESENTATION_CONTEXT ( 'NONE', 'WORKASPACE' ) );
#105 = DATE_AND_TIME ( #87, #181 ) ;
#106 = DATE_AND_TIME ( #191, #120 ) ;
#107 = EDGE_LOOP ( 'NONE', ( #24 ) ) ;
#108 = FACE_OUTER_BOUND ( 'NONE', #6, .T. ) ;
#109 = CC_DESIGN_PERSON_AND_ORGANIZATION_ASSIGNMENT ( #100, #143, ( #21 ) ) ;
#110 = FACE_OUTER_BOUND ( 'NONE', #22, .T. ) ;
#111 = DIRECTION ( 'NONE',  ( -4.279844320860573942E-30, 1.000000000000000000, -1.204669080539463395E-15 ) ) ;
#112 = AXIS2_PLACEMENT_3D ( 'NONE', #59, #55, #184 ) ;
#113 = EDGE_CURVE ( 'NONE', #260, #260, #9, .T. ) ;
#114 = DIRECTION ( 'NONE',  ( 0.0000000000000000000, 1.000000000000000000, 0.0000000000000000000 ) ) ;
#115 = DIRECTION ( 'NONE',  ( 4.275831445896958607E-31, 1.000000000000000000, 1.224646799147353207E-16 ) ) ;
#116 = CARTESIAN_POINT ( 'NONE',  ( 5.237222008264700033E-14, 0.8999999999999979128, 15.00000000000000000 ) ) ;
#117 = VERTEX_POINT ( 'NONE', #39 ) ;
#118 = CC_DESIGN_PERSON_AND_ORGANIZATION_ASSIGNMENT ( #211, #80, ( #54 ) ) ;
#119 = APPLICATION_PROTOCOL_DEFINITION ( 'international standard', 'config_control_design', 1994, #149 ) ;
#120 = LOCAL_TIME ( 11, 34, 27.00000000000000000, #44 ) ;
#121 = ORIENTED_EDGE ( 'NONE', *, *, #224, .F. ) ;
#122 = PERSON_AND_ORGANIZATION_ROLE ( 'classification_officer' ) ;
#123 = ORIENTED_EDGE ( 'NONE', *, *, #171, .F. ) ;
#124 = SECURITY_CLASSIFICATION_LEVEL ( 'unclassified' ) ;
#125 = EDGE_LOOP ( 'NONE', ( #235 ) ) ;
#126 = FACE_OUTER_BOUND ( 'NONE', #46, .T. ) ;
#127 = AXIS2_PLACEMENT_3D ( 'NONE', #69, #151, #111 ) ;
#128 = ORIENTED_EDGE ( 'NONE', *, *, #62, .F. ) ;
#129 = CARTESIAN_POINT ( 'NONE',  ( 1.745740669421566678E-13, 8.998558695971067645E-33, 50.00000000000000000 ) ) ;
#130 = CARTESIAN_POINT ( 'NONE',  ( 6.670564440791223915E-14, 2.339719047052926195E-14, 19.10525588832574684 ) ) ;
#131 = ADVANCED_BREP_SHAPE_REPRESENTATION ( '956668', ( #150, #243, #112 ), #104 ) ;
#132 = DIRECTION ( 'NONE',  ( -4.239083898758708124E-30, 1.000000000000000000, -1.193196041677624206E-15 ) ) ;
#133 = AXIS2_PLACEMENT_3D ( 'NONE', #130, #200, #15 ) ;
#134 = VERTEX_POINT ( 'NONE', #75 ) ;
#135 = APPLICATION_PROTOCOL_DEFINITION ( 'international standard', 'config_control_design', 1994, #2 ) ;
#136 = DIRECTION ( 'NONE',  ( 4.239083898758708124E-30, -1.000000000000000000, 1.193196041677624206E-15 ) ) ;
#137 = ADVANCED_FACE ( 'NONE', ( #126, #241 ), #72, .T. ) ;
#138 = AXIS2_PLACEMENT_3D ( 'NONE', #159, #37, #115 ) ;
#139 = MECHANICAL_CONTEXT ( 'NONE', #149, 'mechanical' ) ;
#140 = CC_DESIGN_DATE_AND_TIME_ASSIGNMENT ( #27, #214, ( #83 ) ) ;
#141 = ORIENTED_EDGE ( 'NONE', *, *, #224, .T. ) ;
#142 = AXIS2_PLACEMENT_3D ( 'NONE', #71, #148, #34 ) ;
#143 = PERSON_AND_ORGANIZATION_ROLE ( 'design_supplier' ) ;
#144 = EDGE_LOOP ( 'NONE', ( #3 ) ) ;
#145 = EDGE_LOOP ( 'NONE', ( #128 ) ) ;
#146 = CC_DESIGN_SECURITY_CLASSIFICATION ( #83, ( #21 ) ) ;
#147 = APPROVAL_STATUS ( 'not_yet_approved' ) ;
#148 = DIRECTION ( 'NONE',  ( 3.491481338843133355E-15, -1.224646799147353207E-16, 1.000000000000000000 ) ) ;
#149 = APPLICATION_CONTEXT ( 'configuration controlled 3d designs of mechanical parts and assemblies' ) ;
#150 = MANIFOLD_SOLID_BREP ( 'Corps-Déplacer/Copier1[1]', #222 ) ;
#151 = DIRECTION ( 'NONE',  ( -3.491481338843133355E-15, -1.224646799147354045E-15, -1.000000000000000000 ) ) ;
#152 = CC_DESIGN_APPROVAL ( #73, ( #83 ) ) ;
#153 = FACE_OUTER_BOUND ( 'NONE', #42, .T. ) ;
#154 = DIRECTION ( 'NONE',  ( 0.0000000000000000000, 1.000000000000000000, 0.0000000000000000000 ) ) ;
#155 = DIRECTION ( 'NONE',  ( -3.491481338843133355E-15, 1.224646799147353207E-16, -1.000000000000000000 ) ) ;
#156 = PRODUCT_RELATED_PRODUCT_CATEGORY ( 'detail', '', ( #38 ) ) ;
#157 = CONICAL_SURFACE ( 'NONE', #194, 0.8999999999999993561, 1.082104136236485825 ) ;
#158 = LOCAL_TIME ( 11, 34, 27.00000000000000000, #7 ) ;
#159 = CARTESIAN_POINT ( 'NONE',  ( 0.0000000000000000000, 0.0000000000000000000, 0.0000000000000000000 ) ) ;
#160 = APPROVAL ( #63, 'UNSPECIFIED' ) ;
#161 =( LENGTH_UNIT ( ) NAMED_UNIT ( * ) SI_UNIT ( .MILLI., .METRE. ) );
#162 = VERTEX_POINT ( 'NONE', #116 ) ;
#163 = AXIS2_PLACEMENT_3D ( 'NONE', #32, #177, #132 ) ;
#164 = AXIS2_PLACEMENT_3D ( 'NONE', #254, #52, #252 ) ;
#165 = CARTESIAN_POINT ( 'NONE',  ( 1.735266225405037467E-13, 1.499999999999995559, 49.70000000000000284 ) ) ;
#166 = PERSON_AND_ORGANIZATION ( #101, #246 ) ;
#167 = EDGE_LOOP ( 'NONE', ( #255 ) ) ;
#168 = AXIS2_PLACEMENT_3D ( 'NONE', #238, #195, #201 ) ;
#169 = COORDINATED_UNIVERSAL_TIME_OFFSET ( 1, 0, .AHEAD. ) ;
#170 = EDGE_LOOP ( 'NONE', ( #121 ) ) ;
#171 = EDGE_CURVE ( 'NONE', #96, #96, #236, .T. ) ;
#172 = DATE_AND_TIME ( #85, #158 ) ;
#173 = ORIENTED_EDGE ( 'NONE', *, *, #29, .T. ) ;
#174 = CONICAL_SURFACE ( 'NONE', #26, 1.200000000000001732, 0.7853981633974453924 ) ;
#175 = FACE_BOUND ( 'NONE', #145, .T. ) ;
#176 = DIRECTION ( 'NONE',  ( -3.491481338843133355E-15, 1.224646799147353207E-16, -1.000000000000000000 ) ) ;
#177 = DIRECTION ( 'NONE',  ( -3.491481338843133355E-15, -1.224646799147354045E-15, -1.000000000000000000 ) ) ;
#178 = ADVANCED_FACE ( 'NONE', ( #70, #36 ), #89, .T. ) ;
#179 = DIRECTION ( 'NONE',  ( -4.279844320860526998E-30, 1.000000000000000000, -1.204669080539450182E-15 ) ) ;
#180 = PERSON_AND_ORGANIZATION ( #101, #246 ) ;
#181 = LOCAL_TIME ( 11, 34, 27.00000000000000000, #102 ) ;
#182 = EDGE_CURVE ( 'NONE', #202, #202, #226, .T. ) ;
#183 = CYLINDRICAL_SURFACE ( 'NONE', #138, 1.499999999999995337 ) ;
#184 = DIRECTION ( 'NONE',  ( 1.000000000000000000, 0.0000000000000000000, 0.0000000000000000000 ) ) ;
#185 = CARTESIAN_POINT ( 'NONE',  ( 1.885399922975292327E-14, -0.8999999999999829248, 5.400000000000000355 ) ) ;
#186 = CIRCLE ( 'NONE', #168, 0.8999999999999895861 ) ;
#187 = CC_DESIGN_APPROVAL ( #208, ( #54 ) ) ;
#188 = CALENDAR_DATE ( 2021, 15, 10 ) ;
#189 = ORIENTED_EDGE ( 'NONE', *, *, #29, .F. ) ;
#190 = CC_DESIGN_PERSON_AND_ORGANIZATION_ASSIGNMENT ( #248, #41, ( #21 ) ) ;
#191 = CALENDAR_DATE ( 2021, 15, 10 ) ;
#192 = ADVANCED_FACE ( 'NONE', ( #108 ), #68, .F. ) ;
#193 = ORIENTED_EDGE ( 'NONE', *, *, #213, .F. ) ;
#194 = AXIS2_PLACEMENT_3D ( 'NONE', #50, #90, #223 ) ;
#195 = DIRECTION ( 'NONE',  ( -3.491481338843133355E-15, 1.224646799147353207E-16, -1.000000000000000000 ) ) ;
#196 = DIRECTION ( 'NONE',  ( -3.491481338843133355E-15, 1.224646799147353207E-16, -1.000000000000000000 ) ) ;
#197 = DIRECTION ( 'NONE',  ( -3.491481338843133355E-15, -1.224646799147354045E-15, -1.000000000000000000 ) ) ;
#198 = ADVANCED_FACE ( 'NONE', ( #153, #239 ), #174, .T. ) ;
#199 = AXIS2_PLACEMENT_3D ( 'NONE', #207, #244, #228 ) ;
#200 = DIRECTION ( 'NONE',  ( 3.491481338843133355E-15, 1.224646799147354045E-15, 1.000000000000000000 ) ) ;
#201 = DIRECTION ( 'NONE',  ( 0.0000000000000000000, -1.000000000000000000, 0.0000000000000000000 ) ) ;
#202 = VERTEX_POINT ( 'NONE', #76 ) ;
#203 = ADVANCED_FACE ( 'NONE', ( #92, #51 ), #251, .T. ) ;
#204 = CC_DESIGN_APPROVAL ( #160, ( #21 ) ) ;
#205 = FACE_OUTER_BOUND ( 'NONE', #28, .T. ) ;
#206 =( NAMED_UNIT ( * ) SI_UNIT ( $, .STERADIAN. ) SOLID_ANGLE_UNIT ( ) );
#207 = CARTESIAN_POINT ( 'NONE',  ( 6.019045153279192963E-14, 2.111196843265710290E-14, 17.23923048454139106 ) ) ;
#208 = APPROVAL ( #257, 'UNSPECIFIED' ) ;
#209 = FACE_OUTER_BOUND ( 'NONE', #233, .T. ) ;
#210 = AXIS2_PLACEMENT_3D ( 'NONE', #237, #176, #114 ) ;
#211 = PERSON_AND_ORGANIZATION ( #101, #246 ) ;
#212 = ORIENTED_EDGE ( 'NONE', *, *, #231, .T. ) ;
#213 = EDGE_CURVE ( 'NONE', #162, #162, #31, .T. ) ;
#214 = DATE_TIME_ROLE ( 'classification_date' ) ;
#215 = APPROVAL_PERSON_ORGANIZATION ( #180, #208, #25 ) ;
#216 = CALENDAR_DATE ( 2021, 15, 10 ) ;
#217 = ORIENTED_EDGE ( 'NONE', *, *, #182, .F. ) ;
#218 = DIRECTION ( 'NONE',  ( 4.275831445896958607E-31, 1.000000000000000000, 1.224646799147353207E-16 ) ) ;
#219 = DIRECTION ( 'NONE',  ( -4.275831445896958607E-31, -1.000000000000000000, -1.224646799147353207E-16 ) ) ;
#220 = FACE_OUTER_BOUND ( 'NONE', #125, .T. ) ;
#221 = ADVANCED_FACE ( 'NONE', ( #205, #209 ), #183, .T. ) ;
#222 = CLOSED_SHELL ( 'NONE', ( #221, #198, #192, #178, #203, #95 ) ) ;
#223 = DIRECTION ( 'NONE',  ( 4.279844320860526998E-30, -1.000000000000000000, 1.204669080539450182E-15 ) ) ;
#224 = EDGE_CURVE ( 'NONE', #134, #134, #57, .T. ) ;
#225 = DIRECTION ( 'NONE',  ( -6.847750913376993977E-30, 1.000000000000000000, -1.927470528863162732E-15 ) ) ;
#226 = CIRCLE ( 'NONE', #210, 1.200000000000001732 ) ;
#227 = CARTESIAN_POINT ( 'NONE',  ( 1.885399922975292327E-14, 6.613092715395712200E-15, 5.400000000000000355 ) ) ;
#228 = DIRECTION ( 'NONE',  ( 8.217301096052232464E-30, -1.000000000000000000, 2.312964634635750155E-15 ) ) ;
#229 = CONICAL_SURFACE ( 'NONE', #35, 0.7269230769227995603, 1.221730476396032161 ) ;
#230 = UNCERTAINTY_MEASURE_WITH_UNIT (LENGTH_MEASURE( 1.000000000000000082E-05 ), #161, 'distance_accuracy_value', 'NONE');
#231 = EDGE_CURVE ( 'NONE', #117, #117, #88, .T. ) ;
#232 = COORDINATED_UNIVERSAL_TIME_OFFSET ( 1, 0, .AHEAD. ) ;
#233 = EDGE_LOOP ( 'NONE', ( #12 ) ) ;
#234 = APPROVAL_DATE_TIME ( #105, #208 ) ;
#235 = ORIENTED_EDGE ( 'NONE', *, *, #231, .F. ) ;
#236 = CIRCLE ( 'NONE', #77, 1.500000000000001554 ) ;
#237 = CARTESIAN_POINT ( 'NONE',  ( 1.745740669421566678E-13, -6.123233995736766085E-15, 50.00000000000000000 ) ) ;
#238 = CARTESIAN_POINT ( 'NONE',  ( 1.885399922975292327E-14, 6.613092715395712200E-15, 5.400000000000000355 ) ) ;
#239 = FACE_BOUND ( 'NONE', #65, .T. ) ;
#240 = PLANE ( 'NONE',  #142 ) ;
#241 = FACE_OUTER_BOUND ( 'NONE', #107, .T. ) ;
#242 = CARTESIAN_POINT ( 'NONE',  ( 1.245079685395387506E-15, 0.8999999999999998002, 0.3566049950041926819 ) ) ;
#243 = MANIFOLD_SOLID_BREP ( 'Corps-Déplacer/Copier1[2]', #258 ) ;
#244 = DIRECTION ( 'NONE',  ( 3.491481338843133355E-15, 1.224646799147354045E-15, 1.000000000000000000 ) ) ;
#245 = CC_DESIGN_DATE_AND_TIME_ASSIGNMENT ( #247, #23, ( #54 ) ) ;
#246 = ORGANIZATION ( 'UNSPECIFIED', 'UNSPECIFIED', '' ) ;
#247 = DATE_AND_TIME ( #188, #262 ) ;
#248 = PERSON_AND_ORGANIZATION ( #101, #246 ) ;
#249 = AXIS2_PLACEMENT_3D ( 'NONE', #49, #11, #219 ) ;
#250 = ADVANCED_FACE ( 'NONE', ( #53 ), #229, .T. ) ;
#251 = CONICAL_SURFACE ( 'NONE', #133, 1.999999999999971356, 0.2617993877991485197 ) ;
#252 = DIRECTION ( 'NONE',  ( -4.279844320860573942E-30, 1.000000000000000000, -1.204669080539463395E-15 ) ) ;
#253 = ORIENTED_EDGE ( 'NONE', *, *, #113, .T. ) ;
#254 = CARTESIAN_POINT ( 'NONE',  ( -3.491481338843130200E-15, -1.224646799147353059E-15, -0.9999999999999991118 ) ) ;
#255 = ORIENTED_EDGE ( 'NONE', *, *, #213, .T. ) ;
#256 = CARTESIAN_POINT ( 'NONE',  ( 1.245079685395391253E-15, 4.367151656918441360E-16, 0.3566049950041937922 ) ) ;
#257 = APPROVAL_STATUS ( 'not_yet_approved' ) ;
#258 = CLOSED_SHELL ( 'NONE', ( #78, #250, #82, #137 ) ) ;
#259 = PERSON_AND_ORGANIZATION ( #101, #246 ) ;
#260 = VERTEX_POINT ( 'NONE', #242 ) ;
#261 = VERTEX_POINT ( 'NONE', #185 ) ;
#262 = LOCAL_TIME ( 11, 34, 27.00000000000000000, #232 ) ;
#263 = VERTEX_POINT ( 'NONE', #74 ) ;
ENDSEC;
END-ISO-10303-21;
