ISO-10303-21;
HEADER;
FILE_DESCRIPTION (( 'STEP AP203' ),
    '1' );
FILE_NAME ('956667.step',
    '2021-10-15T09:34:27',
    ( '' ),
    ( '' ),
    'SwSTEP 2.0',
    'SolidWorks 2019',
    '' );
FILE_SCHEMA (( 'CONFIG_CONTROL_DESIGN' ));
ENDSEC;

DATA;
#1 = VERTEX_POINT ( 'NONE', #79 ) ;
#2 = DIRECTION ( 'NONE',  ( -3.491481338843133355E-15, 1.224646799147353207E-16, -1.000000000000000000 ) ) ;
#3 = LOCAL_TIME ( 11, 34, 27.00000000000000000, #45 ) ;
#4 = SECURITY_CLASSIFICATION_LEVEL ( 'unclassified' ) ;
#5 = EDGE_LOOP ( 'NONE', ( #13 ) ) ;
#6 = EDGE_LOOP ( 'NONE', ( #250 ) ) ;
#7 = APPROVAL_ROLE ( '' ) ;
#8 = APPROVAL_PERSON_ORGANIZATION ( #141, #212, #42 ) ;
#9 = EDGE_LOOP ( 'NONE', ( #65 ) ) ;
#10 = DIRECTION ( 'NONE',  ( 0.0000000000000000000, -1.000000000000000000, 0.0000000000000000000 ) ) ;
#11 = ORIENTED_EDGE ( 'NONE', *, *, #229, .T. ) ;
#12 = CONICAL_SURFACE ( 'NONE', #120, 0.7499999999999995559, 1.082104136236485825 ) ;
#13 = ORIENTED_EDGE ( 'NONE', *, *, #161, .F. ) ;
#14 = FACE_OUTER_BOUND ( 'NONE', #6, .T. ) ;
#15 = EDGE_LOOP ( 'NONE', ( #232 ) ) ;
#16 = AXIS2_PLACEMENT_3D ( 'NONE', #92, #195, #109 ) ;
#17 = ADVANCED_BREP_SHAPE_REPRESENTATION ( '956667', ( #261, #85, #180 ), #146 ) ;
#18 = CARTESIAN_POINT ( 'NONE',  ( 1.037566404496156583E-15, 0.7499999999999997780, 0.2971708291701606885 ) ) ;
#19 = CIRCLE ( 'NONE', #262, 0.7499999999999917843 ) ;
#20 = DATE_AND_TIME ( #66, #73 ) ;
#21 = ADVANCED_FACE ( 'NONE', ( #254, #88 ), #172, .T. ) ;
#22 = ORIENTED_EDGE ( 'NONE', *, *, #161, .T. ) ;
#23 = APPROVAL_DATE_TIME ( #225, #200 ) ;
#24 = EDGE_LOOP ( 'NONE', ( #150 ) ) ;
#25 = CALENDAR_DATE ( 2021, 15, 10 ) ;
#26 = ORIENTED_EDGE ( 'NONE', *, *, #217, .T. ) ;
#27 = CC_DESIGN_DATE_AND_TIME_ASSIGNMENT ( #28, #44, ( #187 ) ) ;
#28 = DATE_AND_TIME ( #25, #3 ) ;
#29 = CIRCLE ( 'NONE', #40, 0.6057692307689994671 ) ;
#30 = PLANE ( 'NONE',  #202 ) ;
#31 = DIRECTION ( 'NONE',  ( -3.491481338843133355E-15, 1.224646799147353207E-16, -1.000000000000000000 ) ) ;
#32 = DIRECTION ( 'NONE',  ( 4.275831445896958607E-31, 1.000000000000000000, 1.224646799147353207E-16 ) ) ;
#33 = CYLINDRICAL_SURFACE ( 'NONE', #248, 0.7499999999999917843 ) ;
#34 = CARTESIAN_POINT ( 'NONE',  ( 0.0000000000000000000, 0.0000000000000000000, 0.0000000000000000000 ) ) ;
#35 =( LENGTH_UNIT ( ) NAMED_UNIT ( * ) SI_UNIT ( .MILLI., .METRE. ) );
#36 = CIRCLE ( 'NONE', #222, 0.7499999999999839018 ) ;
#37 = DIRECTION ( 'NONE',  ( 3.491481338843133355E-15, 1.224646799147354045E-15, 1.000000000000000000 ) ) ;
#38 =( NAMED_UNIT ( * ) SI_UNIT ( $, .STERADIAN. ) SOLID_ANGLE_UNIT ( ) );
#39 = VERTEX_POINT ( 'NONE', #158 ) ;
#40 = AXIS2_PLACEMENT_3D ( 'NONE', #171, #251, #68 ) ;
#41 = PERSON_AND_ORGANIZATION ( #97, #235 ) ;
#42 = APPROVAL_ROLE ( '' ) ;
#43 = ORIENTED_EDGE ( 'NONE', *, *, #255, .T. ) ;
#44 = DATE_TIME_ROLE ( 'classification_date' ) ;
#45 = COORDINATED_UNIVERSAL_TIME_OFFSET ( 1, 0, .AHEAD. ) ;
#46 = PERSON_AND_ORGANIZATION_ROLE ( 'design_supplier' ) ;
#47 = ORIENTED_EDGE ( 'NONE', *, *, #143, .T. ) ;
#48 = CONICAL_SURFACE ( 'NONE', #128, 1.999999999999974465, 0.2617993877991485752 ) ;
#49 = FACE_OUTER_BOUND ( 'NONE', #142, .T. ) ;
#50 = PRODUCT_DEFINITION_SHAPE ( 'NONE', 'NONE',  #51 ) ;
#51 = PRODUCT_DEFINITION ( 'UNKNOWN', '', #81, #183 ) ;
#52 = DIRECTION ( 'NONE',  ( -4.275831445896958607E-31, -1.000000000000000000, -1.224646799147353207E-16 ) ) ;
#53 = DIRECTION ( 'NONE',  ( 0.0000000000000000000, 1.000000000000000000, 0.0000000000000000000 ) ) ;
#54 = LOCAL_TIME ( 11, 34, 27.00000000000000000, #139 ) ;
#55 = DIRECTION ( 'NONE',  ( 3.491481338843133355E-15, 1.224646799147354045E-15, 1.000000000000000000 ) ) ;
#56 = FACE_OUTER_BOUND ( 'NONE', #83, .T. ) ;
#57 = CARTESIAN_POINT ( 'NONE',  ( 1.745740669421566678E-13, -6.123233995736766085E-15, 50.00000000000000000 ) ) ;
#58 = CIRCLE ( 'NONE', #101, 0.7499999999999917843 ) ;
#59 = PERSON_AND_ORGANIZATION_ROLE ( 'design_owner' ) ;
#60 = CARTESIAN_POINT ( 'NONE',  ( 1.735266225405037467E-13, 1.499999999999995559, 49.70000000000000284 ) ) ;
#61 = CALENDAR_DATE ( 2021, 15, 10 ) ;
#62 = CC_DESIGN_SECURITY_CLASSIFICATION ( #187, ( #81 ) ) ;
#63 = DATE_AND_TIME ( #244, #54 ) ;
#64 = EDGE_LOOP ( 'NONE', ( #123 ) ) ;
#65 = ORIENTED_EDGE ( 'NONE', *, *, #69, .F. ) ;
#66 = CALENDAR_DATE ( 2021, 15, 10 ) ;
#67 = EDGE_LOOP ( 'NONE', ( #11 ) ) ;
#68 = DIRECTION ( 'NONE',  ( -4.292072447493193105E-30, 1.000000000000000000, -1.208110992198594827E-15 ) ) ;
#69 = EDGE_CURVE ( 'NONE', #220, #220, #36, .T. ) ;
#70 = CARTESIAN_POINT ( 'NONE',  ( 4.189777606611760657E-14, 1.469576158976824933E-14, 12.00000000000000178 ) ) ;
#71 = PLANE ( 'NONE',  #249 ) ;
#72 = CARTESIAN_POINT ( 'NONE',  ( 5.167056537879867038E-14, 1.812359464657670405E-14, 14.79903810567671130 ) ) ;
#73 = LOCAL_TIME ( 11, 34, 27.00000000000000000, #186 ) ;
#74 = CARTESIAN_POINT ( 'NONE',  ( 1.571166602479410010E-14, 5.510910596163092711E-15, 4.500000000000000000 ) ) ;
#75 = DIRECTION ( 'NONE',  ( -3.491481338843133355E-15, -1.224646799147354045E-15, -1.000000000000000000 ) ) ;
#76 = DIRECTION ( 'NONE',  ( 1.000000000000000000, 0.0000000000000000000, 0.0000000000000000000 ) ) ;
#77 = VERTEX_POINT ( 'NONE', #196 ) ;
#78 = CARTESIAN_POINT ( 'NONE',  ( 1.745740669421566678E-13, -6.123233995736766085E-15, 50.00000000000000000 ) ) ;
#79 = CARTESIAN_POINT ( 'NONE',  ( 1.571166602479410010E-14, -0.7499999999999862332, 4.500000000000000000 ) ) ;
#80 = UNCERTAINTY_MEASURE_WITH_UNIT (LENGTH_MEASURE( 1.000000000000000082E-05 ), #35, 'distance_accuracy_value', 'NONE');
#81 = PRODUCT_DEFINITION_FORMATION_WITH_SPECIFIED_SOURCE ( 'ANY', '', #107, .NOT_KNOWN. ) ;
#82 = APPROVAL_DATE_TIME ( #20, #194 ) ;
#83 = EDGE_LOOP ( 'NONE', ( #125 ) ) ;
#84 = DATE_TIME_ROLE ( 'creation_date' ) ;
#85 = MANIFOLD_SOLID_BREP ( 'Corps-Déplacer/Copier1[2]', #164 ) ;
#86 = AXIS2_PLACEMENT_3D ( 'NONE', #57, #2, #241 ) ;
#87 = DIRECTION ( 'NONE',  ( 4.275831445896958607E-31, 1.000000000000000000, 1.224646799147353207E-16 ) ) ;
#88 = FACE_OUTER_BOUND ( 'NONE', #227, .T. ) ;
#89 = FACE_OUTER_BOUND ( 'NONE', #24, .T. ) ;
#90 = CC_DESIGN_DATE_AND_TIME_ASSIGNMENT ( #63, #84, ( #51 ) ) ;
#91 = CYLINDRICAL_SURFACE ( 'NONE', #243, 0.7499999999999917843 ) ;
#92 = CARTESIAN_POINT ( 'NONE',  ( 1.571166602479410010E-14, 1.124819836996383900E-32, 4.500000000000000000 ) ) ;
#93 = CLOSED_SHELL ( 'NONE', ( #21, #247, #206, #98, #124, #132 ) ) ;
#94 = CC_DESIGN_PERSON_AND_ORGANIZATION_ASSIGNMENT ( #160, #59, ( #107 ) ) ;
#95 = FACE_OUTER_BOUND ( 'NONE', #67, .T. ) ;
#96 = AXIS2_PLACEMENT_3D ( 'NONE', #234, #233, #53 ) ;
#97 = PERSON ( 'UNSPECIFIED', 'UNSPECIFIED', 'UNSPECIFIED', ('UNSPECIFIED'), ('UNSPECIFIED'), ('UNSPECIFIED') ) ;
#98 = ADVANCED_FACE ( 'NONE', ( #211, #253 ), #33, .T. ) ;
#99 = DIRECTION ( 'NONE',  ( -3.491481338843133355E-15, 1.224646799147353207E-16, -1.000000000000000000 ) ) ;
#100 = CALENDAR_DATE ( 2021, 15, 10 ) ;
#101 = AXIS2_PLACEMENT_3D ( 'NONE', #74, #131, #10 ) ;
#102 = EDGE_LOOP ( 'NONE', ( #43 ) ) ;
#103 = APPROVAL_ROLE ( '' ) ;
#104 = EDGE_LOOP ( 'NONE', ( #188 ) ) ;
#105 = ADVANCED_FACE ( 'NONE', ( #89 ), #71, .T. ) ;
#106 = CARTESIAN_POINT ( 'NONE',  ( 1.745740669421566678E-13, 8.998558695971067645E-33, 50.00000000000000000 ) ) ;
#107 = PRODUCT ( '956667', '956667', '', ( #201 ) ) ;
#108 = DIRECTION ( 'NONE',  ( 3.491481338843133355E-15, 1.224646799147354045E-15, 1.000000000000000000 ) ) ;
#109 = DIRECTION ( 'NONE',  ( -4.275831445896958607E-31, -1.000000000000000000, -1.224646799147353207E-16 ) ) ;
#110 = CONICAL_SURFACE ( 'NONE', #230, 1.200000000000001732, 0.7853981633974453924 ) ;
#111 = FACE_OUTER_BOUND ( 'NONE', #102, .T. ) ;
#112 = CC_DESIGN_PERSON_AND_ORGANIZATION_ASSIGNMENT ( #122, #126, ( #51 ) ) ;
#113 = DIRECTION ( 'NONE',  ( 0.0000000000000000000, 1.000000000000000000, 0.0000000000000000000 ) ) ;
#114 = LOCAL_TIME ( 11, 34, 27.00000000000000000, #144 ) ;
#115 = CARTESIAN_POINT ( 'NONE',  ( 0.0000000000000000000, 0.0000000000000000000, 0.0000000000000000000 ) ) ;
#116 = VERTEX_POINT ( 'NONE', #135 ) ;
#117 = APPROVAL_STATUS ( 'not_yet_approved' ) ;
#118 = CC_DESIGN_PERSON_AND_ORGANIZATION_ASSIGNMENT ( #224, #205, ( #187 ) ) ;
#119 = CARTESIAN_POINT ( 'NONE',  ( 1.037566404496159936E-15, 3.639293047432035946E-16, 0.2971708291701615767 ) ) ;
#120 = AXIS2_PLACEMENT_3D ( 'NONE', #259, #37, #162 ) ;
#121 = APPROVAL_STATUS ( 'not_yet_approved' ) ;
#122 = PERSON_AND_ORGANIZATION ( #97, #235 ) ;
#123 = ORIENTED_EDGE ( 'NONE', *, *, #69, .T. ) ;
#124 = ADVANCED_FACE ( 'NONE', ( #154, #130 ), #48, .T. ) ;
#125 = ORIENTED_EDGE ( 'NONE', *, *, #263, .F. ) ;
#126 = PERSON_AND_ORGANIZATION_ROLE ( 'creator' ) ;
#127 = EDGE_LOOP ( 'NONE', ( #245 ) ) ;
#128 = AXIS2_PLACEMENT_3D ( 'NONE', #210, #174, #256 ) ;
#129 = CARTESIAN_POINT ( 'NONE',  ( 7.698086797361734777E-16, 2.700125374025696238E-16, 0.2204819688342489481 ) ) ;
#130 = FACE_OUTER_BOUND ( 'NONE', #145, .T. ) ;
#131 = DIRECTION ( 'NONE',  ( -3.491481338843133355E-15, 1.224646799147353207E-16, -1.000000000000000000 ) ) ;
#132 = ADVANCED_FACE ( 'NONE', ( #192 ), #257, .F. ) ;
#133 = AXIS2_PLACEMENT_3D ( 'NONE', #72, #55, #134 ) ;
#134 = DIRECTION ( 'NONE',  ( 4.108650548026116232E-30, -1.000000000000000000, 1.156482317317875078E-15 ) ) ;
#135 = CARTESIAN_POINT ( 'NONE',  ( 7.698086797361709139E-16, 0.6057692307689996891, 0.2204819688342482265 ) ) ;
#136 = DIRECTION ( 'NONE',  ( 0.0000000000000000000, 0.0000000000000000000, 1.000000000000000000 ) ) ;
#137 = DIRECTION ( 'NONE',  ( -4.365441207277737636E-30, 1.000000000000000000, -1.228762462150239213E-15 ) ) ;
#138 = CARTESIAN_POINT ( 'NONE',  ( 1.745740669421566678E-13, 1.199999999999995515, 50.00000000000000000 ) ) ;
#139 = COORDINATED_UNIVERSAL_TIME_OFFSET ( 1, 0, .AHEAD. ) ;
#140 = CC_DESIGN_APPROVAL ( #200, ( #51 ) ) ;
#141 = PERSON_AND_ORGANIZATION ( #97, #235 ) ;
#142 = EDGE_LOOP ( 'NONE', ( #26 ) ) ;
#143 = EDGE_CURVE ( 'NONE', #218, #218, #252, .T. ) ;
#144 = COORDINATED_UNIVERSAL_TIME_OFFSET ( 1, 0, .AHEAD. ) ;
#145 = EDGE_LOOP ( 'NONE', ( #214 ) ) ;
#146 =( GEOMETRIC_REPRESENTATION_CONTEXT ( 3 ) GLOBAL_UNCERTAINTY_ASSIGNED_CONTEXT ( ( #80 ) ) GLOBAL_UNIT_ASSIGNED_CONTEXT ( ( #35, #199, #38 ) ) REPRESENTATION_CONTEXT ( 'NONE', 'WORKASPACE' ) );
#147 = COORDINATED_UNIVERSAL_TIME_OFFSET ( 1, 0, .AHEAD. ) ;
#148 = EDGE_LOOP ( 'NONE', ( #185 ) ) ;
#149 = PRODUCT_RELATED_PRODUCT_CATEGORY ( 'detail', '', ( #107 ) ) ;
#150 = ORIENTED_EDGE ( 'NONE', *, *, #255, .F. ) ;
#151 = DIRECTION ( 'NONE',  ( 3.491481338843133355E-15, -1.224646799147353207E-16, 1.000000000000000000 ) ) ;
#152 = APPROVAL_PERSON_ORGANIZATION ( #184, #194, #103 ) ;
#153 = CARTESIAN_POINT ( 'NONE',  ( 1.571166602479410010E-14, 1.124819836996383900E-32, 4.500000000000000000 ) ) ;
#154 = FACE_BOUND ( 'NONE', #9, .T. ) ;
#155 = DIRECTION ( 'NONE',  ( -3.491481338843133355E-15, -1.224646799147354045E-15, -1.000000000000000000 ) ) ;
#156 = CC_DESIGN_APPROVAL ( #212, ( #81 ) ) ;
#157 = DIRECTION ( 'NONE',  ( -3.491481338843133355E-15, -1.224646799147354045E-15, -1.000000000000000000 ) ) ;
#158 = CARTESIAN_POINT ( 'NONE',  ( 1.571166602479410010E-14, -0.7499999999999862332, 4.500000000000000000 ) ) ;
#159 = APPLICATION_PROTOCOL_DEFINITION ( 'international standard', 'config_control_design', 1994, #166 ) ;
#160 = PERSON_AND_ORGANIZATION ( #97, #235 ) ;
#161 = EDGE_CURVE ( 'NONE', #1, #1, #58, .T. ) ;
#162 = DIRECTION ( 'NONE',  ( 4.365441207277736936E-30, -1.000000000000000000, 1.228762462150239016E-15 ) ) ;
#163 = FACE_BOUND ( 'NONE', #104, .T. ) ;
#164 = CLOSED_SHELL ( 'NONE', ( #105, #221, #237, #165 ) ) ;
#165 = ADVANCED_FACE ( 'NONE', ( #111, #14 ), #91, .T. ) ;
#166 = APPLICATION_CONTEXT ( 'configuration controlled 3d designs of mechanical parts and assemblies' ) ;
#167 = CC_DESIGN_PERSON_AND_ORGANIZATION_ASSIGNMENT ( #223, #46, ( #81 ) ) ;
#168 = APPROVAL_STATUS ( 'not_yet_approved' ) ;
#169 = LOCAL_TIME ( 11, 34, 27.00000000000000000, #147 ) ;
#170 = EDGE_LOOP ( 'NONE', ( #22 ) ) ;
#171 = CARTESIAN_POINT ( 'NONE',  ( 7.698086797361734777E-16, 2.700125374025696238E-16, 0.2204819688342489481 ) ) ;
#172 = CYLINDRICAL_SURFACE ( 'NONE', #173, 1.499999999999995337 ) ;
#173 = AXIS2_PLACEMENT_3D ( 'NONE', #34, #31, #32 ) ;
#174 = DIRECTION ( 'NONE',  ( 3.491481338843133355E-15, 1.224646799147354045E-15, 1.000000000000000000 ) ) ;
#175 = DIRECTION ( 'NONE',  ( -4.108650548026148462E-30, 1.000000000000000000, -1.156482317317884150E-15 ) ) ;
#176 = CC_DESIGN_PERSON_AND_ORGANIZATION_ASSIGNMENT ( #41, #207, ( #81 ) ) ;
#177 = DIRECTION ( 'NONE',  ( -3.491481338843133355E-15, -1.224646799147354045E-15, -1.000000000000000000 ) ) ;
#178 = CC_DESIGN_APPROVAL ( #194, ( #187 ) ) ;
#179 = DIRECTION ( 'NONE',  ( -3.491481338843133355E-15, 1.224646799147353207E-16, -1.000000000000000000 ) ) ;
#180 = AXIS2_PLACEMENT_3D ( 'NONE', #115, #136, #76 ) ;
#181 = FACE_BOUND ( 'NONE', #15, .T. ) ;
#182 = CARTESIAN_POINT ( 'NONE',  ( 1.571166602479410010E-14, 5.510910596163092711E-15, 4.500000000000000000 ) ) ;
#183 = DESIGN_CONTEXT ( 'detailed design', #231, 'design' ) ;
#184 = PERSON_AND_ORGANIZATION ( #97, #235 ) ;
#185 = ORIENTED_EDGE ( 'NONE', *, *, #191, .T. ) ;
#186 = COORDINATED_UNIVERSAL_TIME_OFFSET ( 1, 0, .AHEAD. ) ;
#187 = SECURITY_CLASSIFICATION ( '', '', #4 ) ;
#188 = ORIENTED_EDGE ( 'NONE', *, *, #217, .F. ) ;
#189 = DIRECTION ( 'NONE',  ( -3.491481338843133355E-15, 1.224646799147353207E-16, -1.000000000000000000 ) ) ;
#190 = DIRECTION ( 'NONE',  ( 4.292072447493192405E-30, -1.000000000000000000, 1.208110992198594630E-15 ) ) ;
#191 = EDGE_CURVE ( 'NONE', #77, #77, #204, .T. ) ;
#192 = FACE_OUTER_BOUND ( 'NONE', #170, .T. ) ;
#193 = CARTESIAN_POINT ( 'NONE',  ( -3.491481338843130200E-15, -1.224646799147353059E-15, -0.9999999999999991118 ) ) ;
#194 = APPROVAL ( #121, 'UNSPECIFIED' ) ;
#195 = DIRECTION ( 'NONE',  ( 3.491481338843133355E-15, -1.224646799147353207E-16, 1.000000000000000000 ) ) ;
#196 = CARTESIAN_POINT ( 'NONE',  ( 5.167056537879867669E-14, -1.499999999999977129, 14.79903810567671307 ) ) ;
#197 = AXIS2_PLACEMENT_3D ( 'NONE', #129, #108, #190 ) ;
#198 = FACE_OUTER_BOUND ( 'NONE', #127, .T. ) ;
#199 =( NAMED_UNIT ( * ) PLANE_ANGLE_UNIT ( ) SI_UNIT ( $, .RADIAN. ) );
#200 = APPROVAL ( #117, 'UNSPECIFIED' ) ;
#201 = MECHANICAL_CONTEXT ( 'NONE', #166, 'mechanical' ) ;
#202 = AXIS2_PLACEMENT_3D ( 'NONE', #106, #189, #87 ) ;
#203 = APPROVAL_DATE_TIME ( #228, #212 ) ;
#204 = CIRCLE ( 'NONE', #133, 1.499999999999995337 ) ;
#205 = PERSON_AND_ORGANIZATION_ROLE ( 'classification_officer' ) ;
#206 = ADVANCED_FACE ( 'NONE', ( #56 ), #30, .F. ) ;
#207 = PERSON_AND_ORGANIZATION_ROLE ( 'creator' ) ;
#208 = CARTESIAN_POINT ( 'NONE',  ( -3.491481338843130200E-15, -1.224646799147353059E-15, -0.9999999999999991118 ) ) ;
#209 = DIRECTION ( 'NONE',  ( -8.217301096052382403E-30, 1.000000000000000000, -2.312964634635792359E-15 ) ) ;
#210 = CARTESIAN_POINT ( 'NONE',  ( 5.818575825391901145E-14, 2.040881668444887888E-14, 16.66506350946107773 ) ) ;
#211 = FACE_OUTER_BOUND ( 'NONE', #64, .T. ) ;
#212 = APPROVAL ( #168, 'UNSPECIFIED' ) ;
#213 = APPROVAL_PERSON_ORGANIZATION ( #219, #200, #7 ) ;
#214 = ORIENTED_EDGE ( 'NONE', *, *, #191, .F. ) ;
#215 = VERTEX_POINT ( 'NONE', #138 ) ;
#216 = AXIS2_PLACEMENT_3D ( 'NONE', #119, #75, #137 ) ;
#217 = EDGE_CURVE ( 'NONE', #116, #116, #29, .T. ) ;
#218 = VERTEX_POINT ( 'NONE', #60 ) ;
#219 = PERSON_AND_ORGANIZATION ( #97, #235 ) ;
#220 = VERTEX_POINT ( 'NONE', #242 ) ;
#221 = ADVANCED_FACE ( 'NONE', ( #49 ), #239, .T. ) ;
#222 = AXIS2_PLACEMENT_3D ( 'NONE', #70, #177, #209 ) ;
#223 = PERSON_AND_ORGANIZATION ( #97, #235 ) ;
#224 = PERSON_AND_ORGANIZATION ( #97, #235 ) ;
#225 = DATE_AND_TIME ( #61, #169 ) ;
#226 = CIRCLE ( 'NONE', #216, 0.7499999999999994449 ) ;
#227 = EDGE_LOOP ( 'NONE', ( #47 ) ) ;
#228 = DATE_AND_TIME ( #100, #114 ) ;
#229 = EDGE_CURVE ( 'NONE', #260, #260, #226, .T. ) ;
#230 = AXIS2_PLACEMENT_3D ( 'NONE', #78, #99, #113 ) ;
#231 = APPLICATION_CONTEXT ( 'configuration controlled 3d designs of mechanical parts and assemblies' ) ;
#232 = ORIENTED_EDGE ( 'NONE', *, *, #263, .T. ) ;
#233 = DIRECTION ( 'NONE',  ( -3.491481338843133355E-15, 1.224646799147353207E-16, -1.000000000000000000 ) ) ;
#234 = CARTESIAN_POINT ( 'NONE',  ( 1.735266225405037467E-13, -6.086494591762345225E-15, 49.70000000000000284 ) ) ;
#235 = ORGANIZATION ( 'UNSPECIFIED', 'UNSPECIFIED', '' ) ;
#236 = DIRECTION ( 'NONE',  ( -4.108650548026148462E-30, 1.000000000000000000, -1.156482317317884150E-15 ) ) ;
#237 = ADVANCED_FACE ( 'NONE', ( #163, #95 ), #12, .T. ) ;
#238 = DIRECTION ( 'NONE',  ( 0.0000000000000000000, -1.000000000000000000, 0.0000000000000000000 ) ) ;
#239 = CONICAL_SURFACE ( 'NONE', #197, 0.6057692307689995781, 1.221730476396032161 ) ;
#240 = APPLICATION_PROTOCOL_DEFINITION ( 'international standard', 'config_control_design', 1994, #231 ) ;
#241 = DIRECTION ( 'NONE',  ( 0.0000000000000000000, 1.000000000000000000, 0.0000000000000000000 ) ) ;
#242 = CARTESIAN_POINT ( 'NONE',  ( 4.189777606611760026E-14, 0.7499999999999985567, 12.00000000000000000 ) ) ;
#243 = AXIS2_PLACEMENT_3D ( 'NONE', #208, #157, #236 ) ;
#244 = CALENDAR_DATE ( 2021, 15, 10 ) ;
#245 = ORIENTED_EDGE ( 'NONE', *, *, #143, .F. ) ;
#246 = SHAPE_DEFINITION_REPRESENTATION ( #50, #17 ) ;
#247 = ADVANCED_FACE ( 'NONE', ( #198, #181 ), #110, .T. ) ;
#248 = AXIS2_PLACEMENT_3D ( 'NONE', #193, #155, #175 ) ;
#249 = AXIS2_PLACEMENT_3D ( 'NONE', #153, #151, #52 ) ;
#250 = ORIENTED_EDGE ( 'NONE', *, *, #229, .F. ) ;
#251 = DIRECTION ( 'NONE',  ( -3.491481338843133355E-15, -1.224646799147354045E-15, -1.000000000000000000 ) ) ;
#252 = CIRCLE ( 'NONE', #96, 1.500000000000001554 ) ;
#253 = FACE_OUTER_BOUND ( 'NONE', #5, .T. ) ;
#254 = FACE_OUTER_BOUND ( 'NONE', #148, .T. ) ;
#255 = EDGE_CURVE ( 'NONE', #39, #39, #19, .T. ) ;
#256 = DIRECTION ( 'NONE',  ( 6.162975822039233202E-30, -1.000000000000000000, 1.734723475976829183E-15 ) ) ;
#257 = PLANE ( 'NONE',  #16 ) ;
#258 = CIRCLE ( 'NONE', #86, 1.200000000000001732 ) ;
#259 = CARTESIAN_POINT ( 'NONE',  ( 1.037566404496159936E-15, 3.639293047432035946E-16, 0.2971708291701615767 ) ) ;
#260 = VERTEX_POINT ( 'NONE', #18 ) ;
#261 = MANIFOLD_SOLID_BREP ( 'Corps-Déplacer/Copier1[1]', #93 ) ;
#262 = AXIS2_PLACEMENT_3D ( 'NONE', #182, #179, #238 ) ;
#263 = EDGE_CURVE ( 'NONE', #215, #215, #258, .T. ) ;
ENDSEC;
END-ISO-10303-21;
