ISO-10303-21;
HEADER;
FILE_DESCRIPTION (( 'STEP AP203' ),
    '1' );
FILE_NAME ('956666.step',
    '2021-10-15T09:34:26',
    ( '' ),
    ( '' ),
    'SwSTEP 2.0',
    'SolidWorks 2019',
    '' );
FILE_SCHEMA (( 'CONFIG_CONTROL_DESIGN' ));
ENDSEC;

DATA;
#1 = EDGE_LOOP ( 'NONE', ( #190 ) ) ;
#2 = AXIS2_PLACEMENT_3D ( 'NONE', #83, #30, #198 ) ;
#3 = MANIFOLD_SOLID_BREP ( 'Corps-Déplacer/Copier1[1]', #36 ) ;
#4 = APPROVAL_STATUS ( 'not_yet_approved' ) ;
#5 = DIRECTION ( 'NONE',  ( -4.275831445896958607E-31, -1.000000000000000000, -1.224646799147353207E-16 ) ) ;
#6 = DATE_AND_TIME ( #212, #82 ) ;
#7 = PRODUCT ( '956666', '956666', '', ( #33 ) ) ;
#8 = DIRECTION ( 'NONE',  ( 4.275831445896958607E-31, 1.000000000000000000, 1.224646799147353207E-16 ) ) ;
#9 = PRODUCT_DEFINITION ( 'UNKNOWN', '', #73, #75 ) ;
#10 = EDGE_LOOP ( 'NONE', ( #248 ) ) ;
#11 = EDGE_LOOP ( 'NONE', ( #24 ) ) ;
#12 = AXIS2_PLACEMENT_3D ( 'NONE', #64, #65, #192 ) ;
#13 = DIRECTION ( 'NONE',  ( 0.0000000000000000000, 1.000000000000000000, 0.0000000000000000000 ) ) ;
#14 = DIRECTION ( 'NONE',  ( -3.491481338843133355E-15, 1.224646799147353207E-16, -1.000000000000000000 ) ) ;
#15 = AXIS2_PLACEMENT_3D ( 'NONE', #153, #150, #195 ) ;
#16 = DIRECTION ( 'NONE',  ( -3.491481338843133355E-15, -1.224646799147354045E-15, -1.000000000000000000 ) ) ;
#17 = CARTESIAN_POINT ( 'NONE',  ( 4.664216056364855080E-14, -1.499999999999978684, 13.35884572681203508 ) ) ;
#18 = LOCAL_TIME ( 11, 34, 26.00000000000000000, #124 ) ;
#19 = EDGE_CURVE ( 'NONE', #118, #118, #162, .T. ) ;
#20 = ORIENTED_EDGE ( 'NONE', *, *, #186, .F. ) ;
#21 = PERSON_AND_ORGANIZATION_ROLE ( 'classification_officer' ) ;
#22 = PERSON_AND_ORGANIZATION_ROLE ( 'creator' ) ;
#23 = APPROVAL_ROLE ( '' ) ;
#24 = ORIENTED_EDGE ( 'NONE', *, *, #186, .T. ) ;
#25 = DIRECTION ( 'NONE',  ( 3.491481338843133355E-15, 1.224646799147354045E-15, 1.000000000000000000 ) ) ;
#26 = LOCAL_TIME ( 11, 34, 26.00000000000000000, #60 ) ;
#27 = FACE_BOUND ( 'NONE', #1, .T. ) ;
#28 = CYLINDRICAL_SURFACE ( 'NONE', #202, 1.499999999999995115 ) ;
#29 = ADVANCED_FACE ( 'NONE', ( #132, #130 ), #236, .T. ) ;
#30 = DIRECTION ( 'NONE',  ( -3.491481338843133355E-15, 1.224646799147353207E-16, -1.000000000000000000 ) ) ;
#31 = CIRCLE ( 'NONE', #256, 0.5999999999999928724 ) ;
#32 = DIRECTION ( 'NONE',  ( -4.275831445896958607E-31, -1.000000000000000000, -1.224646799147353207E-16 ) ) ;
#33 = MECHANICAL_CONTEXT ( 'NONE', #38, 'mechanical' ) ;
#34 = CLOSED_SHELL ( 'NONE', ( #81, #263, #155, #29 ) ) ;
#35 = PRODUCT_RELATED_PRODUCT_CATEGORY ( 'detail', '', ( #7 ) ) ;
#36 = CLOSED_SHELL ( 'NONE', ( #129, #41, #259, #249, #135, #254 ) ) ;
#37 = CARTESIAN_POINT ( 'NONE',  ( 1.745740669421566678E-13, 1.199999999999995515, 50.00000000000000000 ) ) ;
#38 = APPLICATION_CONTEXT ( 'configuration controlled 3d designs of mechanical parts and assemblies' ) ;
#39 = CC_DESIGN_PERSON_AND_ORGANIZATION_ASSIGNMENT ( #210, #230, ( #73 ) ) ;
#40 = COORDINATED_UNIVERSAL_TIME_OFFSET ( 1, 0, .AHEAD. ) ;
#41 = ADVANCED_FACE ( 'NONE', ( #104, #27 ), #197, .T. ) ;
#42 = ORIENTED_EDGE ( 'NONE', *, *, #151, .T. ) ;
#43 = SECURITY_CLASSIFICATION_LEVEL ( 'unclassified' ) ;
#44 = ORIENTED_EDGE ( 'NONE', *, *, #19, .F. ) ;
#45 = DATE_AND_TIME ( #122, #111 ) ;
#46 = DIRECTION ( 'NONE',  ( 0.0000000000000000000, -1.000000000000000000, 0.0000000000000000000 ) ) ;
#47 = FACE_BOUND ( 'NONE', #141, .T. ) ;
#48 = FACE_OUTER_BOUND ( 'NONE', #123, .T. ) ;
#49 = APPROVAL_PERSON_ORGANIZATION ( #144, #79, #23 ) ;
#50 = FACE_OUTER_BOUND ( 'NONE', #183, .T. ) ;
#51 = DIRECTION ( 'NONE',  ( -4.371555270594918826E-30, 1.000000000000000000, -1.230483417980050265E-15 ) ) ;
#52 = FACE_OUTER_BOUND ( 'NONE', #121, .T. ) ;
#53 = DIRECTION ( 'NONE',  ( -3.851859888774517248E-30, 1.000000000000000000, -1.084202172485517253E-15 ) ) ;
#54 = CARTESIAN_POINT ( 'NONE',  ( 6.158469437889373820E-16, 0.4846153846151997624, 0.1763855750673987421 ) ) ;
#55 = EDGE_CURVE ( 'NONE', #261, #261, #57, .T. ) ;
#56 = VERTEX_POINT ( 'NONE', #157 ) ;
#57 = CIRCLE ( 'NONE', #76, 0.5999999999999995337 ) ;
#58 = APPROVAL_STATUS ( 'not_yet_approved' ) ;
#59 = CONICAL_SURFACE ( 'NONE', #115, 1.999999999999976241, 0.2617993877991485197 ) ;
#60 = COORDINATED_UNIVERSAL_TIME_OFFSET ( 1, 0, .AHEAD. ) ;
#61 = PERSON_AND_ORGANIZATION_ROLE ( 'creator' ) ;
#62 = CARTESIAN_POINT ( 'NONE',  ( 3.491481338843133355E-14, 1.224646799147354006E-14, 10.00000000000000000 ) ) ;
#63 = CARTESIAN_POINT ( 'NONE',  ( 8.300531235969283235E-16, 2.911434437945630532E-16, 0.2377366633361294168 ) ) ;
#64 = CARTESIAN_POINT ( 'NONE',  ( 1.745740669421566678E-13, -6.123233995736766085E-15, 50.00000000000000000 ) ) ;
#65 = DIRECTION ( 'NONE',  ( -3.491481338843133355E-15, 1.224646799147353207E-16, -1.000000000000000000 ) ) ;
#66 = DIRECTION ( 'NONE',  ( -3.491481338843133355E-15, -1.224646799147354045E-15, -1.000000000000000000 ) ) ;
#67 = CARTESIAN_POINT ( 'NONE',  ( 1.745740669421566678E-13, 8.998558695971067645E-33, 50.00000000000000000 ) ) ;
#68 = CARTESIAN_POINT ( 'NONE',  ( 0.0000000000000000000, 0.0000000000000000000, 0.0000000000000000000 ) ) ;
#69 = APPROVAL_PERSON_ORGANIZATION ( #189, #224, #191 ) ;
#70 = CARTESIAN_POINT ( 'NONE',  ( 8.300531235969257597E-16, 0.5999999999999998668, 0.2377366633361286674 ) ) ;
#71 = DIRECTION ( 'NONE',  ( 3.491481338843133355E-15, -1.224646799147353207E-16, 1.000000000000000000 ) ) ;
#72 = AXIS2_PLACEMENT_3D ( 'NONE', #110, #109, #88 ) ;
#73 = PRODUCT_DEFINITION_FORMATION_WITH_SPECIFIED_SOURCE ( 'ANY', '', #7, .NOT_KNOWN. ) ;
#74 = ORIENTED_EDGE ( 'NONE', *, *, #151, .F. ) ;
#75 = DESIGN_CONTEXT ( 'detailed design', #240, 'design' ) ;
#76 = AXIS2_PLACEMENT_3D ( 'NONE', #108, #251, #255 ) ;
#77 = AXIS2_PLACEMENT_3D ( 'NONE', #62, #234, #147 ) ;
#78 = EDGE_LOOP ( 'NONE', ( #20 ) ) ;
#79 = APPROVAL ( #142, 'UNSPECIFIED' ) ;
#80 = COORDINATED_UNIVERSAL_TIME_OFFSET ( 1, 0, .AHEAD. ) ;
#81 = ADVANCED_FACE ( 'NONE', ( #50 ), #216, .T. ) ;
#82 = LOCAL_TIME ( 11, 34, 26.00000000000000000, #40 ) ;
#83 = CARTESIAN_POINT ( 'NONE',  ( 1.745740669421566678E-13, -6.123233995736766085E-15, 50.00000000000000000 ) ) ;
#84 = SHAPE_DEFINITION_REPRESENTATION ( #235, #120 ) ;
#85 = CARTESIAN_POINT ( 'NONE',  ( 5.315735343876891080E-14, 1.864508969751584730E-14, 15.22487113059640862 ) ) ;
#86 = CARTESIAN_POINT ( 'NONE',  ( -3.491481338843130200E-15, -1.224646799147353059E-15, -0.9999999999999991118 ) ) ;
#87 = MANIFOLD_SOLID_BREP ( 'Corps-Déplacer/Copier1[2]', #34 ) ;
#88 = DIRECTION ( 'NONE',  ( 0.0000000000000000000, -1.000000000000000000, 0.0000000000000000000 ) ) ;
#89 = CIRCLE ( 'NONE', #2, 1.200000000000001732 ) ;
#90 = CC_DESIGN_DATE_AND_TIME_ASSIGNMENT ( #6, #233, ( #257 ) ) ;
#91 = VERTEX_POINT ( 'NONE', #159 ) ;
#92 = AXIS2_PLACEMENT_3D ( 'NONE', #238, #71, #32 ) ;
#93 = DIRECTION ( 'NONE',  ( 3.491481338843133355E-15, 1.224646799147354045E-15, 1.000000000000000000 ) ) ;
#94 = APPLICATION_PROTOCOL_DEFINITION ( 'international standard', 'config_control_design', 1994, #38 ) ;
#95 = CALENDAR_DATE ( 2021, 15, 10 ) ;
#96 = ORIENTED_EDGE ( 'NONE', *, *, #228, .T. ) ;
#97 = ORIENTED_EDGE ( 'NONE', *, *, #19, .T. ) ;
#98 = CIRCLE ( 'NONE', #77, 0.5999999999999864331 ) ;
#99 = ORGANIZATION ( 'UNSPECIFIED', 'UNSPECIFIED', '' ) ;
#100 = EDGE_LOOP ( 'NONE', ( #182 ) ) ;
#101 = EDGE_CURVE ( 'NONE', #112, #112, #89, .T. ) ;
#102 = DATE_AND_TIME ( #95, #26 ) ;
#103 = PERSON_AND_ORGANIZATION ( #174, #99 ) ;
#104 = FACE_OUTER_BOUND ( 'NONE', #78, .T. ) ;
#105 = PERSON_AND_ORGANIZATION ( #174, #99 ) ;
#106 = FACE_OUTER_BOUND ( 'NONE', #100, .T. ) ;
#107 = EDGE_CURVE ( 'NONE', #219, #219, #207, .T. ) ;
#108 = CARTESIAN_POINT ( 'NONE',  ( 8.300531235969283235E-16, 2.911434437945630532E-16, 0.2377366633361294168 ) ) ;
#109 = DIRECTION ( 'NONE',  ( -3.491481338843133355E-15, 1.224646799147353207E-16, -1.000000000000000000 ) ) ;
#110 = CARTESIAN_POINT ( 'NONE',  ( 1.256933281983527692E-14, 4.408728476930473222E-15, 3.599999999999999201 ) ) ;
#111 = LOCAL_TIME ( 11, 34, 26.00000000000000000, #172 ) ;
#112 = VERTEX_POINT ( 'NONE', #37 ) ;
#113 = CC_DESIGN_PERSON_AND_ORGANIZATION_ASSIGNMENT ( #260, #161, ( #7 ) ) ;
#114 = FACE_OUTER_BOUND ( 'NONE', #167, .T. ) ;
#115 = AXIS2_PLACEMENT_3D ( 'NONE', #85, #25, #176 ) ;
#116 = CC_DESIGN_SECURITY_CLASSIFICATION ( #257, ( #73 ) ) ;
#117 = AXIS2_PLACEMENT_3D ( 'NONE', #241, #16, #53 ) ;
#118 = VERTEX_POINT ( 'NONE', #200 ) ;
#119 = PERSON_AND_ORGANIZATION ( #174, #99 ) ;
#120 = ADVANCED_BREP_SHAPE_REPRESENTATION ( '956666', ( #3, #87, #222 ), #154 ) ;
#121 = EDGE_LOOP ( 'NONE', ( #96 ) ) ;
#122 = CALENDAR_DATE ( 2021, 15, 10 ) ;
#123 = EDGE_LOOP ( 'NONE', ( #225 ) ) ;
#124 = COORDINATED_UNIVERSAL_TIME_OFFSET ( 1, 0, .AHEAD. ) ;
#125 = EDGE_LOOP ( 'NONE', ( #244 ) ) ;
#126 = CALENDAR_DATE ( 2021, 15, 10 ) ;
#127 = ORIENTED_EDGE ( 'NONE', *, *, #55, .F. ) ;
#128 = DIRECTION ( 'NONE',  ( -3.491481338843133355E-15, 1.224646799147353207E-16, -1.000000000000000000 ) ) ;
#129 = ADVANCED_FACE ( 'NONE', ( #237, #171 ), #28, .T. ) ;
#130 = FACE_OUTER_BOUND ( 'NONE', #227, .T. ) ;
#131 = DIRECTION ( 'NONE',  ( 3.491481338843133355E-15, -1.224646799147353207E-16, 1.000000000000000000 ) ) ;
#132 = FACE_OUTER_BOUND ( 'NONE', #211, .T. ) ;
#133 = DIRECTION ( 'NONE',  ( 4.371555270594918826E-30, -1.000000000000000000, 1.230483417980050265E-15 ) ) ;
#134 =( LENGTH_UNIT ( ) NAMED_UNIT ( * ) SI_UNIT ( .MILLI., .METRE. ) );
#135 = ADVANCED_FACE ( 'NONE', ( #47, #156 ), #59, .T. ) ;
#136 = AXIS2_PLACEMENT_3D ( 'NONE', #67, #14, #160 ) ;
#137 = AXIS2_PLACEMENT_3D ( 'NONE', #194, #131, #5 ) ;
#138 = CC_DESIGN_PERSON_AND_ORGANIZATION_ASSIGNMENT ( #149, #21, ( #257 ) ) ;
#139 = CYLINDRICAL_SURFACE ( 'NONE', #117, 0.5999999999999928724 ) ;
#140 = ORIENTED_EDGE ( 'NONE', *, *, #55, .T. ) ;
#141 = EDGE_LOOP ( 'NONE', ( #206 ) ) ;
#142 = APPROVAL_STATUS ( 'not_yet_approved' ) ;
#143 = EDGE_LOOP ( 'NONE', ( #42 ) ) ;
#144 = PERSON_AND_ORGANIZATION ( #174, #99 ) ;
#145 = AXIS2_PLACEMENT_3D ( 'NONE', #232, #213, #13 ) ;
#146 = CC_DESIGN_APPROVAL ( #224, ( #73 ) ) ;
#147 = DIRECTION ( 'NONE',  ( 0.0000000000000000000, 1.000000000000000000, 0.0000000000000000000 ) ) ;
#148 = DIRECTION ( 'NONE',  ( 3.491481338843133355E-15, 1.224646799147354045E-15, 1.000000000000000000 ) ) ;
#149 = PERSON_AND_ORGANIZATION ( #174, #99 ) ;
#150 = DIRECTION ( 'NONE',  ( 3.491481338843133355E-15, 1.224646799147354045E-15, 1.000000000000000000 ) ) ;
#151 = EDGE_CURVE ( 'NONE', #203, #203, #152, .T. ) ;
#152 = CIRCLE ( 'NONE', #243, 0.4846153846151995404 ) ;
#153 = CARTESIAN_POINT ( 'NONE',  ( 4.664216056364854449E-14, 1.635986765964366301E-14, 13.35884572681203331 ) ) ;
#154 =( GEOMETRIC_REPRESENTATION_CONTEXT ( 3 ) GLOBAL_UNCERTAINTY_ASSIGNED_CONTEXT ( ( #184 ) ) GLOBAL_UNIT_ASSIGNED_CONTEXT ( ( #134, #262, #177 ) ) REPRESENTATION_CONTEXT ( 'NONE', 'WORKASPACE' ) );
#155 = ADVANCED_FACE ( 'NONE', ( #173, #253 ), #163, .T. ) ;
#156 = FACE_OUTER_BOUND ( 'NONE', #125, .T. ) ;
#157 = CARTESIAN_POINT ( 'NONE',  ( 3.491481338843133355E-14, 0.5999999999999986455, 10.00000000000000000 ) ) ;
#158 = DIRECTION ( 'NONE',  ( 0.0000000000000000000, 0.0000000000000000000, 1.000000000000000000 ) ) ;
#159 = CARTESIAN_POINT ( 'NONE',  ( 1.256933281983527692E-14, -0.5999999999999884315, 3.599999999999999201 ) ) ;
#160 = DIRECTION ( 'NONE',  ( 4.275831445896958607E-31, 1.000000000000000000, 1.224646799147353207E-16 ) ) ;
#161 = PERSON_AND_ORGANIZATION_ROLE ( 'design_owner' ) ;
#162 = CIRCLE ( 'NONE', #72, 0.5999999999999928724 ) ;
#163 = CONICAL_SURFACE ( 'NONE', #220, 0.5999999999999995337, 1.082104136236486047 ) ;
#164 = CC_DESIGN_DATE_AND_TIME_ASSIGNMENT ( #45, #205, ( #9 ) ) ;
#165 = CC_DESIGN_APPROVAL ( #226, ( #9 ) ) ;
#166 = APPROVAL_DATE_TIME ( #185, #224 ) ;
#167 = EDGE_LOOP ( 'NONE', ( #245 ) ) ;
#168 = DATE_AND_TIME ( #208, #170 ) ;
#169 = CARTESIAN_POINT ( 'NONE',  ( 0.0000000000000000000, 0.0000000000000000000, 0.0000000000000000000 ) ) ;
#170 = LOCAL_TIME ( 11, 34, 26.00000000000000000, #80 ) ;
#171 = FACE_OUTER_BOUND ( 'NONE', #11, .T. ) ;
#172 = COORDINATED_UNIVERSAL_TIME_OFFSET ( 1, 0, .AHEAD. ) ;
#173 = FACE_BOUND ( 'NONE', #187, .T. ) ;
#174 = PERSON ( 'UNSPECIFIED', 'UNSPECIFIED', 'UNSPECIFIED', ('UNSPECIFIED'), ('UNSPECIFIED'), ('UNSPECIFIED') ) ;
#175 = CC_DESIGN_APPROVAL ( #79, ( #257 ) ) ;
#176 = DIRECTION ( 'NONE',  ( 3.081487911019613799E-30, -1.000000000000000000, 8.673617379884138024E-16 ) ) ;
#177 =( NAMED_UNIT ( * ) SI_UNIT ( $, .STERADIAN. ) SOLID_ANGLE_UNIT ( ) );
#178 = CARTESIAN_POINT ( 'NONE',  ( 6.158469437889394527E-16, 2.160100299220559111E-16, 0.1763855750673993250 ) ) ;
#179 = PLANE ( 'NONE',  #136 ) ;
#180 = CARTESIAN_POINT ( 'NONE',  ( 1.735266225405037467E-13, 1.499999999999995559, 49.70000000000000284 ) ) ;
#181 = CC_DESIGN_PERSON_AND_ORGANIZATION_ASSIGNMENT ( #105, #61, ( #73 ) ) ;
#182 = ORIENTED_EDGE ( 'NONE', *, *, #209, .T. ) ;
#183 = EDGE_LOOP ( 'NONE', ( #44 ) ) ;
#184 = UNCERTAINTY_MEASURE_WITH_UNIT (LENGTH_MEASURE( 1.000000000000000082E-05 ), #134, 'distance_accuracy_value', 'NONE');
#185 = DATE_AND_TIME ( #126, #18 ) ;
#186 = EDGE_CURVE ( 'NONE', #199, #199, #229, .T. ) ;
#187 = EDGE_LOOP ( 'NONE', ( #74 ) ) ;
#188 = CC_DESIGN_PERSON_AND_ORGANIZATION_ASSIGNMENT ( #103, #22, ( #9 ) ) ;
#189 = PERSON_AND_ORGANIZATION ( #174, #99 ) ;
#190 = ORIENTED_EDGE ( 'NONE', *, *, #101, .T. ) ;
#191 = APPROVAL_ROLE ( '' ) ;
#192 = DIRECTION ( 'NONE',  ( 0.0000000000000000000, 1.000000000000000000, 0.0000000000000000000 ) ) ;
#193 = APPROVAL_DATE_TIME ( #102, #226 ) ;
#194 = CARTESIAN_POINT ( 'NONE',  ( 1.256933281983527850E-14, 1.124819836996384037E-32, 3.599999999999999645 ) ) ;
#195 = DIRECTION ( 'NONE',  ( 4.108650548026116232E-30, -1.000000000000000000, 1.156482317317875078E-15 ) ) ;
#196 = DIRECTION ( 'NONE',  ( -3.491481338843133355E-15, 1.224646799147353207E-16, -1.000000000000000000 ) ) ;
#197 = CONICAL_SURFACE ( 'NONE', #12, 1.200000000000001732, 0.7853981633974453924 ) ;
#198 = DIRECTION ( 'NONE',  ( 0.0000000000000000000, 1.000000000000000000, 0.0000000000000000000 ) ) ;
#199 = VERTEX_POINT ( 'NONE', #180 ) ;
#200 = CARTESIAN_POINT ( 'NONE',  ( 1.256933281983527692E-14, -0.5999999999999884315, 3.599999999999999201 ) ) ;
#201 = PLANE ( 'NONE',  #92 ) ;
#202 = AXIS2_PLACEMENT_3D ( 'NONE', #169, #196, #8 ) ;
#203 = VERTEX_POINT ( 'NONE', #54 ) ;
#204 = EDGE_LOOP ( 'NONE', ( #140 ) ) ;
#205 = DATE_TIME_ROLE ( 'creation_date' ) ;
#206 = ORIENTED_EDGE ( 'NONE', *, *, #209, .F. ) ;
#207 = CIRCLE ( 'NONE', #15, 1.499999999999995115 ) ;
#208 = CALENDAR_DATE ( 2021, 15, 10 ) ;
#209 = EDGE_CURVE ( 'NONE', #56, #56, #98, .T. ) ;
#210 = PERSON_AND_ORGANIZATION ( #174, #99 ) ;
#211 = EDGE_LOOP ( 'NONE', ( #97 ) ) ;
#212 = CALENDAR_DATE ( 2021, 15, 10 ) ;
#213 = DIRECTION ( 'NONE',  ( -3.491481338843133355E-15, 1.224646799147353207E-16, -1.000000000000000000 ) ) ;
#214 = AXIS2_PLACEMENT_3D ( 'NONE', #178, #93, #133 ) ;
#215 = DIRECTION ( 'NONE',  ( -3.851859888774517248E-30, 1.000000000000000000, -1.084202172485517253E-15 ) ) ;
#216 = PLANE ( 'NONE',  #137 ) ;
#217 = DIRECTION ( 'NONE',  ( 4.333342374871284173E-30, -1.000000000000000000, 1.219727444046193474E-15 ) ) ;
#218 = CONICAL_SURFACE ( 'NONE', #214, 0.4846153846151995404, 1.221730476396031717 ) ;
#219 = VERTEX_POINT ( 'NONE', #17 ) ;
#220 = AXIS2_PLACEMENT_3D ( 'NONE', #63, #148, #217 ) ;
#221 = APPROVAL_PERSON_ORGANIZATION ( #119, #226, #247 ) ;
#222 = AXIS2_PLACEMENT_3D ( 'NONE', #68, #158, #239 ) ;
#223 = FACE_OUTER_BOUND ( 'NONE', #143, .T. ) ;
#224 = APPROVAL ( #4, 'UNSPECIFIED' ) ;
#225 = ORIENTED_EDGE ( 'NONE', *, *, #228, .F. ) ;
#226 = APPROVAL ( #58, 'UNSPECIFIED' ) ;
#227 = EDGE_LOOP ( 'NONE', ( #127 ) ) ;
#228 = EDGE_CURVE ( 'NONE', #91, #91, #31, .T. ) ;
#229 = CIRCLE ( 'NONE', #145, 1.500000000000001554 ) ;
#230 = PERSON_AND_ORGANIZATION_ROLE ( 'design_supplier' ) ;
#231 = CARTESIAN_POINT ( 'NONE',  ( 1.256933281983527692E-14, 4.408728476930473222E-15, 3.599999999999999201 ) ) ;
#232 = CARTESIAN_POINT ( 'NONE',  ( 1.735266225405037467E-13, -6.086494591762345225E-15, 49.70000000000000284 ) ) ;
#233 = DATE_TIME_ROLE ( 'classification_date' ) ;
#234 = DIRECTION ( 'NONE',  ( -3.491481338843133355E-15, -1.224646799147354045E-15, -1.000000000000000000 ) ) ;
#235 = PRODUCT_DEFINITION_SHAPE ( 'NONE', 'NONE',  #9 ) ;
#236 = CYLINDRICAL_SURFACE ( 'NONE', #246, 0.5999999999999928724 ) ;
#237 = FACE_OUTER_BOUND ( 'NONE', #10, .T. ) ;
#238 = CARTESIAN_POINT ( 'NONE',  ( 1.256933281983527850E-14, 1.124819836996384037E-32, 3.599999999999999645 ) ) ;
#239 = DIRECTION ( 'NONE',  ( 1.000000000000000000, 0.0000000000000000000, 0.0000000000000000000 ) ) ;
#240 = APPLICATION_CONTEXT ( 'configuration controlled 3d designs of mechanical parts and assemblies' ) ;
#241 = CARTESIAN_POINT ( 'NONE',  ( -3.491481338843130200E-15, -1.224646799147353059E-15, -0.9999999999999991118 ) ) ;
#242 = APPLICATION_PROTOCOL_DEFINITION ( 'international standard', 'config_control_design', 1994, #240 ) ;
#243 = AXIS2_PLACEMENT_3D ( 'NONE', #258, #66, #51 ) ;
#244 = ORIENTED_EDGE ( 'NONE', *, *, #107, .F. ) ;
#245 = ORIENTED_EDGE ( 'NONE', *, *, #101, .F. ) ;
#246 = AXIS2_PLACEMENT_3D ( 'NONE', #86, #250, #215 ) ;
#247 = APPROVAL_ROLE ( '' ) ;
#248 = ORIENTED_EDGE ( 'NONE', *, *, #107, .T. ) ;
#249 = ADVANCED_FACE ( 'NONE', ( #106, #48 ), #139, .T. ) ;
#250 = DIRECTION ( 'NONE',  ( -3.491481338843133355E-15, -1.224646799147354045E-15, -1.000000000000000000 ) ) ;
#251 = DIRECTION ( 'NONE',  ( -3.491481338843133355E-15, -1.224646799147354045E-15, -1.000000000000000000 ) ) ;
#252 = APPROVAL_DATE_TIME ( #168, #79 ) ;
#253 = FACE_OUTER_BOUND ( 'NONE', #204, .T. ) ;
#254 = ADVANCED_FACE ( 'NONE', ( #52 ), #201, .F. ) ;
#255 = DIRECTION ( 'NONE',  ( -4.333342374871284173E-30, 1.000000000000000000, -1.219727444046193474E-15 ) ) ;
#256 = AXIS2_PLACEMENT_3D ( 'NONE', #231, #128, #46 ) ;
#257 = SECURITY_CLASSIFICATION ( '', '', #43 ) ;
#258 = CARTESIAN_POINT ( 'NONE',  ( 6.158469437889394527E-16, 2.160100299220559111E-16, 0.1763855750673993250 ) ) ;
#259 = ADVANCED_FACE ( 'NONE', ( #114 ), #179, .F. ) ;
#260 = PERSON_AND_ORGANIZATION ( #174, #99 ) ;
#261 = VERTEX_POINT ( 'NONE', #70 ) ;
#262 =( NAMED_UNIT ( * ) PLANE_ANGLE_UNIT ( ) SI_UNIT ( $, .RADIAN. ) );
#263 = ADVANCED_FACE ( 'NONE', ( #223 ), #218, .T. ) ;
ENDSEC;
END-ISO-10303-21;
