ISO-10303-21;
HEADER;
FILE_DESCRIPTION (( 'STEP AP203' ),
    '1' );
FILE_NAME ('956665.step',
    '2021-10-15T09:34:26',
    ( '' ),
    ( '' ),
    'SwSTEP 2.0',
    'SolidWorks 2019',
    '' );
FILE_SCHEMA (( 'CONFIG_CONTROL_DESIGN' ));
ENDSEC;

DATA;
#1 = EDGE_LOOP ( 'NONE', ( #83 ) ) ;
#2 = APPROVAL_ROLE ( '' ) ;
#3 = EDGE_LOOP ( 'NONE', ( #216 ) ) ;
#4 = PERSON_AND_ORGANIZATION_ROLE ( 'creator' ) ;
#5 = ADVANCED_FACE ( 'NONE', ( #168 ), #212, .F. ) ;
#6 = COORDINATED_UNIVERSAL_TIME_OFFSET ( 1, 0, .AHEAD. ) ;
#7 = ORIENTED_EDGE ( 'NONE', *, *, #153, .T. ) ;
#8 = FACE_OUTER_BOUND ( 'NONE', #123, .T. ) ;
#9 = DIRECTION ( 'NONE',  ( 3.491481338843133355E-15, 1.224646799147354045E-15, 1.000000000000000000 ) ) ;
#10 = CC_DESIGN_DATE_AND_TIME_ASSIGNMENT ( #66, #44, ( #249 ) ) ;
#11 = EDGE_LOOP ( 'NONE', ( #67 ) ) ;
#12 = CIRCLE ( 'NONE', #31, 0.4999999999999943934 ) ;
#13 = DIRECTION ( 'NONE',  ( -3.491481338843133355E-15, -1.224646799147354045E-15, -1.000000000000000000 ) ) ;
#14 = CARTESIAN_POINT ( 'NONE',  ( 4.096223646098629172E-14, 1.436761846892336976E-14, 11.73205080756889096 ) ) ;
#15 = CARTESIAN_POINT ( 'NONE',  ( 5.132057864907808394E-16, 0.4038461538459998112, 0.1469879792228322157 ) ) ;
#16 = CARTESIAN_POINT ( 'NONE',  ( 6.917109363307740137E-16, 2.426195364954692767E-16, 0.1981138861134412732 ) ) ;
#17 = VERTEX_POINT ( 'NONE', #136 ) ;
#18 = DIRECTION ( 'NONE',  ( -3.491481338843133355E-15, 1.224646799147353700E-16, -1.000000000000000000 ) ) ;
#19 = CALENDAR_DATE ( 2021, 15, 10 ) ;
#20 = EDGE_LOOP ( 'NONE', ( #185 ) ) ;
#21 = UNCERTAINTY_MEASURE_WITH_UNIT (LENGTH_MEASURE( 1.000000000000000082E-05 ), #61, 'distance_accuracy_value', 'NONE');
#22 = CIRCLE ( 'NONE', #170, 0.4999999999999995559 ) ;
#23 = PERSON_AND_ORGANIZATION ( #195, #131 ) ;
#24 = EDGE_LOOP ( 'NONE', ( #101 ) ) ;
#25 = FACE_BOUND ( 'NONE', #251, .T. ) ;
#26 = CIRCLE ( 'NONE', #175, 0.4038461538459996447 ) ;
#27 = FACE_OUTER_BOUND ( 'NONE', #258, .T. ) ;
#28 = CARTESIAN_POINT ( 'NONE',  ( 4.747742933610667696E-14, 1.665284050679556037E-14, 13.59807621135326983 ) ) ;
#29 = LOCAL_TIME ( 11, 34, 26.00000000000000000, #202 ) ;
#30 = DIRECTION ( 'NONE',  ( 4.275831445896961234E-31, 1.000000000000000000, 1.224646799147353700E-16 ) ) ;
#31 = AXIS2_PLACEMENT_3D ( 'NONE', #218, #241, #199 ) ;
#32 = FACE_OUTER_BOUND ( 'NONE', #146, .T. ) ;
#33 =( NAMED_UNIT ( * ) PLANE_ANGLE_UNIT ( ) SI_UNIT ( $, .RADIAN. ) );
#34 = CARTESIAN_POINT ( 'NONE',  ( 1.326762908760390170E-13, 1.199999999999987521, 37.99999999999999289 ) ) ;
#35 = ADVANCED_FACE ( 'NONE', ( #129, #59 ), #64, .T. ) ;
#36 = CONICAL_SURFACE ( 'NONE', #51, 1.199999999999992184, 0.7853981633974338461 ) ;
#37 = CARTESIAN_POINT ( 'NONE',  ( 0.0000000000000000000, 0.0000000000000000000, 0.0000000000000000000 ) ) ;
#38 = CC_DESIGN_DATE_AND_TIME_ASSIGNMENT ( #50, #243, ( #41 ) ) ;
#39 = CARTESIAN_POINT ( 'NONE',  ( 1.316288464743860707E-13, -4.616918432785521870E-15, 37.69999999999998153 ) ) ;
#40 = VERTEX_POINT ( 'NONE', #34 ) ;
#41 = SECURITY_CLASSIFICATION ( '', '', #205 ) ;
#42 = PERSON_AND_ORGANIZATION_ROLE ( 'creator' ) ;
#43 = PRODUCT_DEFINITION_SHAPE ( 'NONE', 'NONE',  #249 ) ;
#44 = DATE_TIME_ROLE ( 'creation_date' ) ;
#45 = MANIFOLD_SOLID_BREP ( 'Corps-Déplacer/Copier1[2]', #217 ) ;
#46 = APPROVAL_STATUS ( 'not_yet_approved' ) ;
#47 = ORIENTED_EDGE ( 'NONE', *, *, #213, .T. ) ;
#48 = CC_DESIGN_APPROVAL ( #72, ( #249 ) ) ;
#49 = MANIFOLD_SOLID_BREP ( 'Corps-Déplacer/Copier1[1]', #193 ) ;
#50 = DATE_AND_TIME ( #105, #200 ) ;
#51 = AXIS2_PLACEMENT_3D ( 'NONE', #108, #188, #190 ) ;
#52 = SHAPE_DEFINITION_REPRESENTATION ( #43, #87 ) ;
#53 = EDGE_LOOP ( 'NONE', ( #71 ) ) ;
#54 = CC_DESIGN_PERSON_AND_ORGANIZATION_ASSIGNMENT ( #142, #42, ( #249 ) ) ;
#55 = CARTESIAN_POINT ( 'NONE',  ( -3.491481338843130200E-15, -1.224646799147353059E-15, -0.9999999999999991118 ) ) ;
#56 = FACE_OUTER_BOUND ( 'NONE', #187, .T. ) ;
#57 = CARTESIAN_POINT ( 'NONE',  ( 1.047444401652940007E-14, 3.673940397442062333E-15, 3.000000000000000000 ) ) ;
#58 = ADVANCED_FACE ( 'NONE', ( #92, #32 ), #109, .T. ) ;
#59 = FACE_OUTER_BOUND ( 'NONE', #107, .T. ) ;
#60 = APPLICATION_CONTEXT ( 'configuration controlled 3d designs of mechanical parts and assemblies' ) ;
#61 =( LENGTH_UNIT ( ) NAMED_UNIT ( * ) SI_UNIT ( .MILLI., .METRE. ) );
#62 = ADVANCED_FACE ( 'NONE', ( #8 ), #256, .T. ) ;
#63 = CIRCLE ( 'NONE', #125, 1.499999999999992006 ) ;
#64 = CONICAL_SURFACE ( 'NONE', #183, 1.999999999999973133, 0.2617993877991487972 ) ;
#65 = CARTESIAN_POINT ( 'NONE',  ( 4.096223646098629803E-14, -1.499999999999975797, 11.73205080756889274 ) ) ;
#66 = DATE_AND_TIME ( #19, #29 ) ;
#67 = ORIENTED_EDGE ( 'NONE', *, *, #230, .T. ) ;
#68 = ADVANCED_FACE ( 'NONE', ( #134, #56 ), #227, .T. ) ;
#69 = ORIENTED_EDGE ( 'NONE', *, *, #198, .F. ) ;
#70 = PERSON_AND_ORGANIZATION ( #195, #131 ) ;
#71 = ORIENTED_EDGE ( 'NONE', *, *, #219, .F. ) ;
#72 = APPROVAL ( #155, 'UNSPECIFIED' ) ;
#73 = EDGE_LOOP ( 'NONE', ( #234 ) ) ;
#74 = APPLICATION_CONTEXT ( 'configuration controlled 3d designs of mechanical parts and assemblies' ) ;
#75 = CARTESIAN_POINT ( 'NONE',  ( 5.132057864907826143E-16, 1.800083582683799464E-16, 0.1469879792228327153 ) ) ;
#76 = AXIS2_PLACEMENT_3D ( 'NONE', #215, #232, #77 ) ;
#77 = DIRECTION ( 'NONE',  ( 4.237045877651921679E-30, -1.000000000000000000, 1.246832498358330888E-15 ) ) ;
#78 = CARTESIAN_POINT ( 'NONE',  ( -3.491481338843130200E-15, -1.224646799147353059E-15, -0.9999999999999991118 ) ) ;
#79 = CARTESIAN_POINT ( 'NONE',  ( 1.047444401652940007E-14, 1.124819836996384448E-32, 3.000000000000000000 ) ) ;
#80 = VERTEX_POINT ( 'NONE', #139 ) ;
#81 = VERTEX_POINT ( 'NONE', #237 ) ;
#82 = COORDINATED_UNIVERSAL_TIME_OFFSET ( 1, 0, .AHEAD. ) ;
#83 = ORIENTED_EDGE ( 'NONE', *, *, #230, .F. ) ;
#84 = ADVANCED_FACE ( 'NONE', ( #27, #151 ), #89, .T. ) ;
#85 = EDGE_LOOP ( 'NONE', ( #247 ) ) ;
#86 = PERSON_AND_ORGANIZATION ( #195, #131 ) ;
#87 = ADVANCED_BREP_SHAPE_REPRESENTATION ( '956665', ( #49, #45, #97 ), #159 ) ;
#88 = FACE_OUTER_BOUND ( 'NONE', #73, .T. ) ;
#89 = CYLINDRICAL_SURFACE ( 'NONE', #204, 0.4999999999999943934 ) ;
#90 = DIRECTION ( 'NONE',  ( 0.0000000000000000000, 1.000000000000000000, 0.0000000000000000000 ) ) ;
#91 = DIRECTION ( 'NONE',  ( -4.622231866529417895E-30, 1.000000000000000000, -1.301042606982619915E-15 ) ) ;
#92 = FACE_BOUND ( 'NONE', #3, .T. ) ;
#93 = PERSON_AND_ORGANIZATION ( #195, #131 ) ;
#94 = AXIS2_PLACEMENT_3D ( 'NONE', #78, #211, #91 ) ;
#95 = VERTEX_POINT ( 'NONE', #15 ) ;
#96 = APPLICATION_PROTOCOL_DEFINITION ( 'international standard', 'config_control_design', 1994, #60 ) ;
#97 = AXIS2_PLACEMENT_3D ( 'NONE', #37, #115, #196 ) ;
#98 = VERTEX_POINT ( 'NONE', #178 ) ;
#99 = DIRECTION ( 'NONE',  ( -3.491481338843133355E-15, 1.224646799147353700E-16, -1.000000000000000000 ) ) ;
#100 = COORDINATED_UNIVERSAL_TIME_OFFSET ( 1, 0, .AHEAD. ) ;
#101 = ORIENTED_EDGE ( 'NONE', *, *, #148, .T. ) ;
#102 = APPROVAL_ROLE ( '' ) ;
#103 = LOCAL_TIME ( 11, 34, 26.00000000000000000, #6 ) ;
#104 = CONICAL_SURFACE ( 'NONE', #255, 0.4038461538459996447, 1.221730476396031939 ) ;
#105 = CALENDAR_DATE ( 2021, 15, 10 ) ;
#106 = PRODUCT_RELATED_PRODUCT_CATEGORY ( 'detail', '', ( #242 ) ) ;
#107 = EDGE_LOOP ( 'NONE', ( #203 ) ) ;
#108 = CARTESIAN_POINT ( 'NONE',  ( 1.326762908760390170E-13, -4.653657836759943518E-15, 37.99999999999999289 ) ) ;
#109 = CONICAL_SURFACE ( 'NONE', #76, 0.4999999999999996669, 1.082104136236484715 ) ;
#110 = CYLINDRICAL_SURFACE ( 'NONE', #94, 0.4999999999999943934 ) ;
#111 = EDGE_CURVE ( 'NONE', #95, #95, #26, .T. ) ;
#112 = FACE_OUTER_BOUND ( 'NONE', #85, .T. ) ;
#113 = AXIS2_PLACEMENT_3D ( 'NONE', #79, #209, #166 ) ;
#114 = DIRECTION ( 'NONE',  ( 3.491481338843133355E-15, -1.224646799147353700E-16, 1.000000000000000000 ) ) ;
#115 = DIRECTION ( 'NONE',  ( 0.0000000000000000000, 0.0000000000000000000, 1.000000000000000000 ) ) ;
#116 = CC_DESIGN_PERSON_AND_ORGANIZATION_ASSIGNMENT ( #93, #158, ( #242 ) ) ;
#117 = APPROVAL_PERSON_ORGANIZATION ( #70, #126, #181 ) ;
#118 = DIRECTION ( 'NONE',  ( -4.237045877651922380E-30, 1.000000000000000000, -1.246832498358331282E-15 ) ) ;
#119 = VERTEX_POINT ( 'NONE', #65 ) ;
#120 = FACE_OUTER_BOUND ( 'NONE', #145, .T. ) ;
#121 = DATE_AND_TIME ( #224, #163 ) ;
#122 = CALENDAR_DATE ( 2021, 15, 10 ) ;
#123 = EDGE_LOOP ( 'NONE', ( #69 ) ) ;
#124 = COORDINATED_UNIVERSAL_TIME_OFFSET ( 1, 0, .AHEAD. ) ;
#125 = AXIS2_PLACEMENT_3D ( 'NONE', #39, #99, #263 ) ;
#126 = APPROVAL ( #144, 'UNSPECIFIED' ) ;
#127 = CARTESIAN_POINT ( 'NONE',  ( 1.326762908760390170E-13, -4.653657836759943518E-15, 37.99999999999999289 ) ) ;
#128 = CC_DESIGN_APPROVAL ( #222, ( #167 ) ) ;
#129 = FACE_BOUND ( 'NONE', #182, .T. ) ;
#130 = DIRECTION ( 'NONE',  ( -4.292072447493193105E-30, 1.000000000000000000, -1.208110992198594827E-15 ) ) ;
#131 = ORGANIZATION ( 'UNSPECIFIED', 'UNSPECIFIED', '' ) ;
#132 = ADVANCED_FACE ( 'NONE', ( #112, #231 ), #110, .T. ) ;
#133 = DIRECTION ( 'NONE',  ( 3.491481338843133355E-15, 1.224646799147354045E-15, 1.000000000000000000 ) ) ;
#134 = FACE_OUTER_BOUND ( 'NONE', #24, .T. ) ;
#135 = CIRCLE ( 'NONE', #240, 0.4999999999999890643 ) ;
#136 = CARTESIAN_POINT ( 'NONE',  ( 6.917109363307718444E-16, 0.4999999999999997780, 0.1981138861134406626 ) ) ;
#137 = DIRECTION ( 'NONE',  ( 0.0000000000000000000, 1.000000000000000000, 0.0000000000000000000 ) ) ;
#138 = AXIS2_PLACEMENT_3D ( 'NONE', #57, #157, #238 ) ;
#139 = CARTESIAN_POINT ( 'NONE',  ( 1.047444401652940007E-14, -0.4999999999999906741, 3.000000000000000000 ) ) ;
#140 = CALENDAR_DATE ( 2021, 15, 10 ) ;
#141 = PERSON_AND_ORGANIZATION_ROLE ( 'classification_officer' ) ;
#142 = PERSON_AND_ORGANIZATION ( #195, #131 ) ;
#143 = DESIGN_CONTEXT ( 'detailed design', #74, 'design' ) ;
#144 = APPROVAL_STATUS ( 'not_yet_approved' ) ;
#145 = EDGE_LOOP ( 'NONE', ( #229 ) ) ;
#146 = EDGE_LOOP ( 'NONE', ( #47 ) ) ;
#147 = DIRECTION ( 'NONE',  ( -4.275831445896960358E-31, -1.000000000000000000, -1.224646799147353700E-16 ) ) ;
#148 = EDGE_CURVE ( 'NONE', #119, #119, #164, .T. ) ;
#149 = DIRECTION ( 'NONE',  ( -3.491481338843133355E-15, 1.224646799147353700E-16, -1.000000000000000000 ) ) ;
#150 = CARTESIAN_POINT ( 'NONE',  ( 1.047444401652940007E-14, 1.124819836996384448E-32, 3.000000000000000000 ) ) ;
#151 = FACE_OUTER_BOUND ( 'NONE', #20, .T. ) ;
#152 = APPROVAL_PERSON_ORGANIZATION ( #221, #72, #102 ) ;
#153 = EDGE_CURVE ( 'NONE', #40, #40, #210, .T. ) ;
#154 = DIRECTION ( 'NONE',  ( 4.108650548026130245E-30, -1.000000000000000000, 1.156482317317879022E-15 ) ) ;
#155 = APPROVAL_STATUS ( 'not_yet_approved' ) ;
#156 = VERTEX_POINT ( 'NONE', #262 ) ;
#157 = DIRECTION ( 'NONE',  ( -3.491481338843133355E-15, 1.224646799147353700E-16, -1.000000000000000000 ) ) ;
#158 = PERSON_AND_ORGANIZATION_ROLE ( 'design_owner' ) ;
#159 =( GEOMETRIC_REPRESENTATION_CONTEXT ( 3 ) GLOBAL_UNCERTAINTY_ASSIGNED_CONTEXT ( ( #21 ) ) GLOBAL_UNIT_ASSIGNED_CONTEXT ( ( #61, #33, #201 ) ) REPRESENTATION_CONTEXT ( 'NONE', 'WORKASPACE' ) );
#160 = CC_DESIGN_PERSON_AND_ORGANIZATION_ASSIGNMENT ( #207, #4, ( #167 ) ) ;
#161 = APPROVAL_DATE_TIME ( #162, #126 ) ;
#162 = DATE_AND_TIME ( #140, #103 ) ;
#163 = LOCAL_TIME ( 11, 34, 26.00000000000000000, #100 ) ;
#164 = CIRCLE ( 'NONE', #228, 1.499999999999990008 ) ;
#165 = FACE_OUTER_BOUND ( 'NONE', #53, .T. ) ;
#166 = DIRECTION ( 'NONE',  ( -4.275831445896960358E-31, -1.000000000000000000, -1.224646799147353700E-16 ) ) ;
#167 = PRODUCT_DEFINITION_FORMATION_WITH_SPECIFIED_SOURCE ( 'ANY', '', #242, .NOT_KNOWN. ) ;
#168 = FACE_OUTER_BOUND ( 'NONE', #11, .T. ) ;
#169 = ADVANCED_FACE ( 'NONE', ( #165, #25 ), #36, .T. ) ;
#170 = AXIS2_PLACEMENT_3D ( 'NONE', #16, #176, #118 ) ;
#171 = DIRECTION ( 'NONE',  ( 3.491481338843133355E-15, 1.224646799147354045E-15, 1.000000000000000000 ) ) ;
#172 = CC_DESIGN_PERSON_AND_ORGANIZATION_ASSIGNMENT ( #86, #180, ( #167 ) ) ;
#173 = CARTESIAN_POINT ( 'NONE',  ( 5.132057864907826143E-16, 1.800083582683799464E-16, 0.1469879792228327153 ) ) ;
#174 = PLANE ( 'NONE',  #250 ) ;
#175 = AXIS2_PLACEMENT_3D ( 'NONE', #173, #192, #130 ) ;
#176 = DIRECTION ( 'NONE',  ( -3.491481338843133355E-15, -1.224646799147354045E-15, -1.000000000000000000 ) ) ;
#177 = MECHANICAL_CONTEXT ( 'NONE', #60, 'mechanical' ) ;
#178 = CARTESIAN_POINT ( 'NONE',  ( 1.316288464743860707E-13, 1.499999999999987566, 37.69999999999998153 ) ) ;
#179 = CARTESIAN_POINT ( 'NONE',  ( 2.793185071074506684E-14, 9.797174393178832363E-15, 8.000000000000000000 ) ) ;
#180 = PERSON_AND_ORGANIZATION_ROLE ( 'design_supplier' ) ;
#181 = APPROVAL_ROLE ( '' ) ;
#182 = EDGE_LOOP ( 'NONE', ( #246 ) ) ;
#183 = AXIS2_PLACEMENT_3D ( 'NONE', #28, #133, #257 ) ;
#184 = ADVANCED_FACE ( 'NONE', ( #88 ), #104, .T. ) ;
#185 = ORIENTED_EDGE ( 'NONE', *, *, #213, .F. ) ;
#186 = APPROVAL_DATE_TIME ( #248, #222 ) ;
#187 = EDGE_LOOP ( 'NONE', ( #206 ) ) ;
#188 = DIRECTION ( 'NONE',  ( -3.491481338843133355E-15, 1.224646799147353700E-16, -1.000000000000000000 ) ) ;
#189 = DIRECTION ( 'NONE',  ( -3.491481338843133355E-15, 1.224646799147353700E-16, -1.000000000000000000 ) ) ;
#190 = DIRECTION ( 'NONE',  ( 0.0000000000000000000, 1.000000000000000000, 0.0000000000000000000 ) ) ;
#191 = LOCAL_TIME ( 11, 34, 26.00000000000000000, #82 ) ;
#192 = DIRECTION ( 'NONE',  ( -3.491481338843133355E-15, -1.224646799147354045E-15, -1.000000000000000000 ) ) ;
#193 = CLOSED_SHELL ( 'NONE', ( #68, #169, #233, #132, #35, #5 ) ) ;
#194 = CARTESIAN_POINT ( 'NONE',  ( 0.0000000000000000000, 0.0000000000000000000, 0.0000000000000000000 ) ) ;
#195 = PERSON ( 'UNSPECIFIED', 'UNSPECIFIED', 'UNSPECIFIED', ('UNSPECIFIED'), ('UNSPECIFIED'), ('UNSPECIFIED') ) ;
#196 = DIRECTION ( 'NONE',  ( 1.000000000000000000, 0.0000000000000000000, 0.0000000000000000000 ) ) ;
#197 = DIRECTION ( 'NONE',  ( 4.275831445896960358E-31, 1.000000000000000000, 1.224646799147353700E-16 ) ) ;
#198 = EDGE_CURVE ( 'NONE', #80, #80, #220, .T. ) ;
#199 = DIRECTION ( 'NONE',  ( 0.0000000000000000000, -1.000000000000000000, 0.0000000000000000000 ) ) ;
#200 = LOCAL_TIME ( 11, 34, 26.00000000000000000, #124 ) ;
#201 =( NAMED_UNIT ( * ) SI_UNIT ( $, .STERADIAN. ) SOLID_ANGLE_UNIT ( ) );
#202 = COORDINATED_UNIVERSAL_TIME_OFFSET ( 1, 0, .AHEAD. ) ;
#203 = ORIENTED_EDGE ( 'NONE', *, *, #148, .F. ) ;
#204 = AXIS2_PLACEMENT_3D ( 'NONE', #55, #13, #252 ) ;
#205 = SECURITY_CLASSIFICATION_LEVEL ( 'unclassified' ) ;
#206 = ORIENTED_EDGE ( 'NONE', *, *, #219, .T. ) ;
#207 = PERSON_AND_ORGANIZATION ( #195, #131 ) ;
#208 = CC_DESIGN_SECURITY_CLASSIFICATION ( #41, ( #167 ) ) ;
#209 = DIRECTION ( 'NONE',  ( 3.491481338843133355E-15, -1.224646799147353700E-16, 1.000000000000000000 ) ) ;
#210 = CIRCLE ( 'NONE', #239, 1.199999999999992184 ) ;
#211 = DIRECTION ( 'NONE',  ( -3.491481338843133355E-15, -1.224646799147354045E-15, -1.000000000000000000 ) ) ;
#212 = PLANE ( 'NONE',  #113 ) ;
#213 = EDGE_CURVE ( 'NONE', #17, #17, #22, .T. ) ;
#214 = CC_DESIGN_APPROVAL ( #126, ( #41 ) ) ;
#215 = CARTESIAN_POINT ( 'NONE',  ( 6.917109363307740137E-16, 2.426195364954692767E-16, 0.1981138861134412732 ) ) ;
#216 = ORIENTED_EDGE ( 'NONE', *, *, #111, .F. ) ;
#217 = CLOSED_SHELL ( 'NONE', ( #62, #184, #58, #84 ) ) ;
#218 = CARTESIAN_POINT ( 'NONE',  ( 1.047444401652940007E-14, 3.673940397442062333E-15, 3.000000000000000000 ) ) ;
#219 = EDGE_CURVE ( 'NONE', #98, #98, #63, .T. ) ;
#220 = CIRCLE ( 'NONE', #138, 0.4999999999999943934 ) ;
#221 = PERSON_AND_ORGANIZATION ( #195, #131 ) ;
#222 = APPROVAL ( #46, 'UNSPECIFIED' ) ;
#223 = APPROVAL_PERSON_ORGANIZATION ( #225, #222, #2 ) ;
#224 = CALENDAR_DATE ( 2021, 15, 10 ) ;
#225 = PERSON_AND_ORGANIZATION ( #195, #131 ) ;
#226 = ORIENTED_EDGE ( 'NONE', *, *, #198, .T. ) ;
#227 = CYLINDRICAL_SURFACE ( 'NONE', #259, 1.499999999999990008 ) ;
#228 = AXIS2_PLACEMENT_3D ( 'NONE', #14, #171, #154 ) ;
#229 = ORIENTED_EDGE ( 'NONE', *, *, #153, .F. ) ;
#230 = EDGE_CURVE ( 'NONE', #156, #156, #12, .T. ) ;
#231 = FACE_OUTER_BOUND ( 'NONE', #1, .T. ) ;
#232 = DIRECTION ( 'NONE',  ( 3.491481338843133355E-15, 1.224646799147354045E-15, 1.000000000000000000 ) ) ;
#233 = ADVANCED_FACE ( 'NONE', ( #120 ), #174, .F. ) ;
#234 = ORIENTED_EDGE ( 'NONE', *, *, #111, .T. ) ;
#235 = CC_DESIGN_PERSON_AND_ORGANIZATION_ASSIGNMENT ( #23, #141, ( #41 ) ) ;
#236 = CARTESIAN_POINT ( 'NONE',  ( 1.326762908760390170E-13, 8.998558695971025223E-33, 37.99999999999999289 ) ) ;
#237 = CARTESIAN_POINT ( 'NONE',  ( 2.793185071074506684E-14, 0.4999999999999988343, 8.000000000000000000 ) ) ;
#238 = DIRECTION ( 'NONE',  ( 0.0000000000000000000, -1.000000000000000000, 0.0000000000000000000 ) ) ;
#239 = AXIS2_PLACEMENT_3D ( 'NONE', #127, #189, #90 ) ;
#240 = AXIS2_PLACEMENT_3D ( 'NONE', #179, #261, #137 ) ;
#241 = DIRECTION ( 'NONE',  ( -3.491481338843133355E-15, 1.224646799147353700E-16, -1.000000000000000000 ) ) ;
#242 = PRODUCT ( '956665', '956665', '', ( #177 ) ) ;
#243 = DATE_TIME_ROLE ( 'classification_date' ) ;
#244 = AXIS2_PLACEMENT_3D ( 'NONE', #150, #114, #147 ) ;
#245 = APPROVAL_DATE_TIME ( #121, #72 ) ;
#246 = ORIENTED_EDGE ( 'NONE', *, *, #253, .F. ) ;
#247 = ORIENTED_EDGE ( 'NONE', *, *, #253, .T. ) ;
#248 = DATE_AND_TIME ( #122, #191 ) ;
#249 = PRODUCT_DEFINITION ( 'UNKNOWN', '', #167, #143 ) ;
#250 = AXIS2_PLACEMENT_3D ( 'NONE', #236, #18, #197 ) ;
#251 = EDGE_LOOP ( 'NONE', ( #7 ) ) ;
#252 = DIRECTION ( 'NONE',  ( -4.622231866529417895E-30, 1.000000000000000000, -1.301042606982619915E-15 ) ) ;
#253 = EDGE_CURVE ( 'NONE', #81, #81, #135, .T. ) ;
#254 = DIRECTION ( 'NONE',  ( 4.292072447493193105E-30, -1.000000000000000000, 1.208110992198594827E-15 ) ) ;
#255 = AXIS2_PLACEMENT_3D ( 'NONE', #75, #9, #254 ) ;
#256 = PLANE ( 'NONE',  #244 ) ;
#257 = DIRECTION ( 'NONE',  ( 3.081487911019618703E-30, -1.000000000000000000, 8.673617379884151829E-16 ) ) ;
#258 = EDGE_LOOP ( 'NONE', ( #226 ) ) ;
#259 = AXIS2_PLACEMENT_3D ( 'NONE', #194, #149, #30 ) ;
#260 = APPLICATION_PROTOCOL_DEFINITION ( 'international standard', 'config_control_design', 1994, #74 ) ;
#261 = DIRECTION ( 'NONE',  ( -3.491481338843133355E-15, -1.224646799147354045E-15, -1.000000000000000000 ) ) ;
#262 = CARTESIAN_POINT ( 'NONE',  ( 1.047444401652940007E-14, -0.4999999999999906741, 3.000000000000000000 ) ) ;
#263 = DIRECTION ( 'NONE',  ( 0.0000000000000000000, 1.000000000000000000, 0.0000000000000000000 ) ) ;
ENDSEC;
END-ISO-10303-21;
