ISO-10303-21;
HEADER;
FILE_DESCRIPTION (( 'STEP AP203' ),
    '1' );
FILE_NAME ('956664.step',
    '2021-10-15T09:34:25',
    ( '' ),
    ( '' ),
    'SwSTEP 2.0',
    'SolidWorks 2019',
    '' );
FILE_SCHEMA (( 'CONFIG_CONTROL_DESIGN' ));
ENDSEC;

DATA;
#1 = AXIS2_PLACEMENT_3D ( 'NONE', #152, #17, #226 ) ;
#2 = DIRECTION ( 'NONE',  ( 0.0000000000000000000, 1.000000000000000000, 0.0000000000000000000 ) ) ;
#3 = CYLINDRICAL_SURFACE ( 'NONE', #4, 0.4499999999999999001 ) ;
#4 = AXIS2_PLACEMENT_3D ( 'NONE', #127, #207, #36 ) ;
#5 = PERSON_AND_ORGANIZATION ( #173, #62 ) ;
#6 = CARTESIAN_POINT ( 'NONE',  ( 9.426999614876463215E-15, -3.306546357697857185E-16, 2.700000000000001066 ) ) ;
#7 = DATE_AND_TIME ( #97, #19 ) ;
#8 = EDGE_LOOP ( 'NONE', ( #242 ) ) ;
#9 = APPROVAL_STATUS ( 'not_yet_approved' ) ;
#10 = AXIS2_PLACEMENT_3D ( 'NONE', #23, #20, #238 ) ;
#11 = EDGE_LOOP ( 'NONE', ( #117 ) ) ;
#12 = PERSON_AND_ORGANIZATION ( #173, #62 ) ;
#13 = FACE_OUTER_BOUND ( 'NONE', #193, .T. ) ;
#14 = CIRCLE ( 'NONE', #67, 0.4499999999999999556 ) ;
#15 = COORDINATED_UNIVERSAL_TIME_OFFSET ( 1, 0, .AHEAD. ) ;
#16 = DIRECTION ( 'NONE',  ( -3.491481338843133355E-15, 1.224646799147353700E-16, -1.000000000000000000 ) ) ;
#17 = DIRECTION ( 'NONE',  ( 3.491481338843133355E-15, -1.224646799147353700E-16, 1.000000000000000000 ) ) ;
#18 = CC_DESIGN_PERSON_AND_ORGANIZATION_ASSIGNMENT ( #197, #99, ( #167 ) ) ;
#19 = LOCAL_TIME ( 11, 34, 25.00000000000000000, #78 ) ;
#20 = DIRECTION ( 'NONE',  ( 0.0000000000000000000, 0.0000000000000000000, 1.000000000000000000 ) ) ;
#21 = VERTEX_POINT ( 'NONE', #194 ) ;
#22 = DIRECTION ( 'NONE',  ( 0.0000000000000000000, -1.000000000000000000, 0.0000000000000000000 ) ) ;
#23 = CARTESIAN_POINT ( 'NONE',  ( 0.0000000000000000000, 0.0000000000000000000, 0.0000000000000000000 ) ) ;
#24 = FACE_BOUND ( 'NONE', #101, .T. ) ;
#25 = ORIENTED_EDGE ( 'NONE', *, *, #166, .F. ) ;
#26 = FACE_OUTER_BOUND ( 'NONE', #79, .T. ) ;
#27 = AXIS2_PLACEMENT_3D ( 'NONE', #205, #235, #22 ) ;
#28 = DIRECTION ( 'NONE',  ( 0.0000000000000000000, -1.000000000000000000, 0.0000000000000000000 ) ) ;
#29 = APPROVAL ( #9, 'UNSPECIFIED' ) ;
#30 = ADVANCED_BREP_SHAPE_REPRESENTATION ( '956664', ( #108, #186, #10 ), #75 ) ;
#31 = CALENDAR_DATE ( 2021, 15, 10 ) ;
#32 = AXIS2_PLACEMENT_3D ( 'NONE', #180, #165, #206 ) ;
#33 = FACE_BOUND ( 'NONE', #95, .T. ) ;
#34 = CARTESIAN_POINT ( 'NONE',  ( 1.326762908760390170E-13, -4.653657836759943518E-15, 37.99999999999999289 ) ) ;
#35 = AXIS2_PLACEMENT_3D ( 'NONE', #220, #46, #175 ) ;
#36 = DIRECTION ( 'NONE',  ( 0.0000000000000000000, -1.000000000000000000, 0.0000000000000000000 ) ) ;
#37 = AXIS2_PLACEMENT_3D ( 'NONE', #146, #16, #2 ) ;
#38 = MECHANICAL_CONTEXT ( 'NONE', #48, 'mechanical' ) ;
#39 = CALENDAR_DATE ( 2021, 15, 10 ) ;
#40 = ORIENTED_EDGE ( 'NONE', *, *, #124, .F. ) ;
#41 =( NAMED_UNIT ( * ) PLANE_ANGLE_UNIT ( ) SI_UNIT ( $, .RADIAN. ) );
#42 = DIRECTION ( 'NONE',  ( 4.275831445896960358E-31, 1.000000000000000000, 1.224646799147353700E-16 ) ) ;
#43 = CC_DESIGN_APPROVAL ( #29, ( #136 ) ) ;
#44 = ORIENTED_EDGE ( 'NONE', *, *, #124, .T. ) ;
#45 = VERTEX_POINT ( 'NONE', #58 ) ;
#46 = DIRECTION ( 'NONE',  ( -3.491481338843133355E-15, 1.224646799147353700E-16, -1.000000000000000000 ) ) ;
#47 = ADVANCED_FACE ( 'NONE', ( #24, #160 ), #81, .T. ) ;
#48 = APPLICATION_CONTEXT ( 'configuration controlled 3d designs of mechanical parts and assemblies' ) ;
#49 = DATE_AND_TIME ( #198, #126 ) ;
#50 = APPROVAL_STATUS ( 'not_yet_approved' ) ;
#51 = CARTESIAN_POINT ( 'NONE',  ( 9.426999614876463215E-15, -3.306546357697857185E-16, 2.700000000000001066 ) ) ;
#52 = EDGE_CURVE ( 'NONE', #45, #45, #110, .T. ) ;
#53 = DIRECTION ( 'NONE',  ( 3.491481338843133355E-15, -1.224646799147353700E-16, 1.000000000000000000 ) ) ;
#54 = APPROVAL_PERSON_ORGANIZATION ( #179, #138, #83 ) ;
#55 = FACE_OUTER_BOUND ( 'NONE', #154, .T. ) ;
#56 = CARTESIAN_POINT ( 'NONE',  ( 9.426999614876463215E-15, -0.4500000000000001776, 2.700000000000001066 ) ) ;
#57 = CC_DESIGN_SECURITY_CLASSIFICATION ( #142, ( #167 ) ) ;
#58 = CARTESIAN_POINT ( 'NONE',  ( 1.326762908760390170E-13, 1.199999999999987521, 37.99999999999999289 ) ) ;
#59 = DIRECTION ( 'NONE',  ( -3.491481338843133355E-15, 1.224646799147353700E-16, -1.000000000000000000 ) ) ;
#60 = EDGE_LOOP ( 'NONE', ( #196 ) ) ;
#61 = PERSON_AND_ORGANIZATION_ROLE ( 'design_supplier' ) ;
#62 = ORGANIZATION ( 'UNSPECIFIED', 'UNSPECIFIED', '' ) ;
#63 = ADVANCED_FACE ( 'NONE', ( #203, #90 ), #3, .T. ) ;
#64 = ORIENTED_EDGE ( 'NONE', *, *, #139, .F. ) ;
#65 = LOCAL_TIME ( 11, 34, 25.00000000000000000, #213 ) ;
#66 = DIRECTION ( 'NONE',  ( -3.491481338843133355E-15, 1.224646799147353700E-16, -1.000000000000000000 ) ) ;
#67 = AXIS2_PLACEMENT_3D ( 'NONE', #116, #225, #107 ) ;
#68 = ADVANCED_FACE ( 'NONE', ( #188, #33 ), #181, .T. ) ;
#69 = AXIS2_PLACEMENT_3D ( 'NONE', #168, #201, #202 ) ;
#70 = DIRECTION ( 'NONE',  ( -4.279844320860524896E-31, -1.000000000000000000, -1.204669080539449590E-16 ) ) ;
#71 = COORDINATED_UNIVERSAL_TIME_OFFSET ( 1, 0, .AHEAD. ) ;
#72 = ADVANCED_FACE ( 'NONE', ( #55, #133 ), #87, .T. ) ;
#73 = CALENDAR_DATE ( 2021, 15, 10 ) ;
#74 = PLANE ( 'NONE',  #129 ) ;
#75 =( GEOMETRIC_REPRESENTATION_CONTEXT ( 3 ) GLOBAL_UNCERTAINTY_ASSIGNED_CONTEXT ( ( #162 ) ) GLOBAL_UNIT_ASSIGNED_CONTEXT ( ( #113, #41, #135 ) ) REPRESENTATION_CONTEXT ( 'NONE', 'WORKASPACE' ) );
#76 = APPLICATION_PROTOCOL_DEFINITION ( 'international standard', 'config_control_design', 1994, #151 ) ;
#77 = CLOSED_SHELL ( 'NONE', ( #189, #128, #230 ) ) ;
#78 = COORDINATED_UNIVERSAL_TIME_OFFSET ( 1, 0, .AHEAD. ) ;
#79 = EDGE_LOOP ( 'NONE', ( #44 ) ) ;
#80 = PERSON_AND_ORGANIZATION ( #173, #62 ) ;
#81 = CONICAL_SURFACE ( 'NONE', #32, 1.999999999999992673, 0.2617993877991414697 ) ;
#82 = EDGE_LOOP ( 'NONE', ( #40 ) ) ;
#83 = APPROVAL_ROLE ( '' ) ;
#84 = DIRECTION ( 'NONE',  ( 3.491481338843133355E-15, -1.224646799147353700E-16, 1.000000000000000000 ) ) ;
#85 = LOCAL_TIME ( 11, 34, 25.00000000000000000, #15 ) ;
#86 = APPROVAL_DATE_TIME ( #49, #138 ) ;
#87 = CYLINDRICAL_SURFACE ( 'NONE', #89, 1.499999999999990008 ) ;
#88 = CARTESIAN_POINT ( 'NONE',  ( 9.426999614876461637E-15, 1.124819836996384448E-32, 2.700000000000000178 ) ) ;
#89 = AXIS2_PLACEMENT_3D ( 'NONE', #199, #66, #217 ) ;
#90 = FACE_OUTER_BOUND ( 'NONE', #11, .T. ) ;
#91 = FACE_OUTER_BOUND ( 'NONE', #82, .T. ) ;
#92 = PERSON_AND_ORGANIZATION_ROLE ( 'design_owner' ) ;
#93 = DIRECTION ( 'NONE',  ( -4.275831445896960358E-31, -1.000000000000000000, -1.224646799147353700E-16 ) ) ;
#94 = VERTEX_POINT ( 'NONE', #169 ) ;
#95 = EDGE_LOOP ( 'NONE', ( #218 ) ) ;
#96 = CIRCLE ( 'NONE', #35, 1.499999999999992006 ) ;
#97 = CALENDAR_DATE ( 2021, 15, 10 ) ;
#98 = EDGE_CURVE ( 'NONE', #94, #94, #96, .T. ) ;
#99 = PERSON_AND_ORGANIZATION_ROLE ( 'creator' ) ;
#100 = FACE_OUTER_BOUND ( 'NONE', #60, .T. ) ;
#101 = EDGE_LOOP ( 'NONE', ( #119 ) ) ;
#102 = CYLINDRICAL_SURFACE ( 'NONE', #69, 0.4499999999999999001 ) ;
#103 = ORIENTED_EDGE ( 'NONE', *, *, #178, .F. ) ;
#104 = PLANE ( 'NONE',  #1 ) ;
#105 = AXIS2_PLACEMENT_3D ( 'NONE', #88, #204, #93 ) ;
#106 = DATE_TIME_ROLE ( 'classification_date' ) ;
#107 = DIRECTION ( 'NONE',  ( 0.0000000000000000000, -1.000000000000000000, 0.0000000000000000000 ) ) ;
#108 = MANIFOLD_SOLID_BREP ( 'Corps-Déplacer/Copier1[1]', #222 ) ;
#109 = CIRCLE ( 'NONE', #27, 1.499999999999990008 ) ;
#110 = CIRCLE ( 'NONE', #239, 1.199999999999992184 ) ;
#111 = CIRCLE ( 'NONE', #232, 0.4499999999999999001 ) ;
#112 = VERTEX_POINT ( 'NONE', #150 ) ;
#113 =( LENGTH_UNIT ( ) NAMED_UNIT ( * ) SI_UNIT ( .MILLI., .METRE. ) );
#114 = EDGE_LOOP ( 'NONE', ( #237 ) ) ;
#115 = APPROVAL_DATE_TIME ( #7, #29 ) ;
#116 = CARTESIAN_POINT ( 'NONE',  ( 2.618611004132350016E-14, -9.184850993605151889E-16, 7.500000000000000000 ) ) ;
#117 = ORIENTED_EDGE ( 'NONE', *, *, #139, .T. ) ;
#118 = DATE_AND_TIME ( #39, #65 ) ;
#119 = ORIENTED_EDGE ( 'NONE', *, *, #166, .T. ) ;
#120 = PRODUCT_RELATED_PRODUCT_CATEGORY ( 'detail', '', ( #243 ) ) ;
#121 = ORIENTED_EDGE ( 'NONE', *, *, #98, .F. ) ;
#122 = ADVANCED_FACE ( 'NONE', ( #157 ), #104, .F. ) ;
#123 = COORDINATED_UNIVERSAL_TIME_OFFSET ( 1, 0, .AHEAD. ) ;
#124 = EDGE_CURVE ( 'NONE', #137, #137, #111, .T. ) ;
#125 = CC_DESIGN_APPROVAL ( #185, ( #167 ) ) ;
#126 = LOCAL_TIME ( 11, 34, 25.00000000000000000, #123 ) ;
#127 = CARTESIAN_POINT ( 'NONE',  ( 1.316288464743860707E-13, -4.616918432785521870E-15, 37.69999999999998153 ) ) ;
#128 = ADVANCED_FACE ( 'NONE', ( #13 ), #170, .T. ) ;
#129 = AXIS2_PLACEMENT_3D ( 'NONE', #149, #59, #42 ) ;
#130 = CC_DESIGN_PERSON_AND_ORGANIZATION_ASSIGNMENT ( #153, #131, ( #136 ) ) ;
#131 = PERSON_AND_ORGANIZATION_ROLE ( 'creator' ) ;
#132 = APPLICATION_PROTOCOL_DEFINITION ( 'international standard', 'config_control_design', 1994, #48 ) ;
#133 = FACE_OUTER_BOUND ( 'NONE', #114, .T. ) ;
#134 = ORIENTED_EDGE ( 'NONE', *, *, #241, .T. ) ;
#135 =( NAMED_UNIT ( * ) SI_UNIT ( $, .STERADIAN. ) SOLID_ANGLE_UNIT ( ) );
#136 = PRODUCT_DEFINITION ( 'UNKNOWN', '', #167, #141 ) ;
#137 = VERTEX_POINT ( 'NONE', #56 ) ;
#138 = APPROVAL ( #50, 'UNSPECIFIED' ) ;
#139 = EDGE_CURVE ( 'NONE', #112, #112, #227, .T. ) ;
#140 = APPROVAL_PERSON_ORGANIZATION ( #80, #185, #236 ) ;
#141 = DESIGN_CONTEXT ( 'detailed design', #151, 'design' ) ;
#142 = SECURITY_CLASSIFICATION ( '', '', #219 ) ;
#143 = CC_DESIGN_DATE_AND_TIME_ASSIGNMENT ( #224, #106, ( #142 ) ) ;
#144 = CC_DESIGN_PERSON_AND_ORGANIZATION_ASSIGNMENT ( #5, #92, ( #243 ) ) ;
#145 = DIRECTION ( 'NONE',  ( -3.491481338843133355E-15, 1.224646799147353700E-16, -1.000000000000000000 ) ) ;
#146 = CARTESIAN_POINT ( 'NONE',  ( 1.326762908760390170E-13, -4.653657836759943518E-15, 37.99999999999999289 ) ) ;
#147 = DATE_AND_TIME ( #73, #195 ) ;
#148 = DIRECTION ( 'NONE',  ( 3.491481338843133355E-15, -1.224646799147353700E-16, 1.000000000000000000 ) ) ;
#149 = CARTESIAN_POINT ( 'NONE',  ( 1.326762908760390170E-13, 8.998558695971025223E-33, 37.99999999999999289 ) ) ;
#150 = CARTESIAN_POINT ( 'NONE',  ( 9.426999614876463215E-15, -0.4500000000000001776, 2.700000000000001066 ) ) ;
#151 = APPLICATION_CONTEXT ( 'configuration controlled 3d designs of mechanical parts and assemblies' ) ;
#152 = CARTESIAN_POINT ( 'NONE',  ( 9.426999614876461637E-15, 1.124819836996384448E-32, 2.700000000000000178 ) ) ;
#153 = PERSON_AND_ORGANIZATION ( #173, #62 ) ;
#154 = EDGE_LOOP ( 'NONE', ( #212 ) ) ;
#155 = PLANE ( 'NONE',  #105 ) ;
#156 = PERSON_AND_ORGANIZATION ( #173, #62 ) ;
#157 = FACE_OUTER_BOUND ( 'NONE', #240, .T. ) ;
#158 = SHAPE_DEFINITION_REPRESENTATION ( #223, #30 ) ;
#159 = CARTESIAN_POINT ( 'NONE',  ( 6.995284408225972659E-16, -2.453615479582607997E-17, 0.2003529083888441753 ) ) ;
#160 = FACE_OUTER_BOUND ( 'NONE', #176, .T. ) ;
#161 = DIRECTION ( 'NONE',  ( -4.279844320860524896E-31, -1.000000000000000000, -1.204669080539449590E-16 ) ) ;
#162 = UNCERTAINTY_MEASURE_WITH_UNIT (LENGTH_MEASURE( 1.000000000000000082E-05 ), #113, 'distance_accuracy_value', 'NONE');
#163 = CARTESIAN_POINT ( 'NONE',  ( 6.995284408225972659E-16, -2.453615479582607997E-17, 0.2003529083888441753 ) ) ;
#164 = APPROVAL_PERSON_ORGANIZATION ( #211, #29, #171 ) ;
#165 = DIRECTION ( 'NONE',  ( 3.491481338843133355E-15, -1.224646799147353700E-16, 1.000000000000000000 ) ) ;
#166 = EDGE_CURVE ( 'NONE', #231, #231, #14, .T. ) ;
#167 = PRODUCT_DEFINITION_FORMATION_WITH_SPECIFIED_SOURCE ( 'ANY', '', #243, .NOT_KNOWN. ) ;
#168 = CARTESIAN_POINT ( 'NONE',  ( 1.316288464743860707E-13, -4.616918432785521870E-15, 37.69999999999998153 ) ) ;
#169 = CARTESIAN_POINT ( 'NONE',  ( 1.316288464743860707E-13, 1.499999999999987566, 37.69999999999998153 ) ) ;
#170 = CONICAL_SURFACE ( 'NONE', #221, 0.4499999999999999001, 1.151917306316251999 ) ;
#171 = APPROVAL_ROLE ( '' ) ;
#172 = CC_DESIGN_PERSON_AND_ORGANIZATION_ASSIGNMENT ( #156, #61, ( #167 ) ) ;
#173 = PERSON ( 'UNSPECIFIED', 'UNSPECIFIED', 'UNSPECIFIED', ('UNSPECIFIED'), ('UNSPECIFIED'), ('UNSPECIFIED') ) ;
#174 = PERSON_AND_ORGANIZATION_ROLE ( 'classification_officer' ) ;
#175 = DIRECTION ( 'NONE',  ( 0.0000000000000000000, 1.000000000000000000, 0.0000000000000000000 ) ) ;
#176 = EDGE_LOOP ( 'NONE', ( #134 ) ) ;
#177 = CIRCLE ( 'NONE', #208, 0.4499999999999999001 ) ;
#178 = EDGE_CURVE ( 'NONE', #21, #21, #177, .T. ) ;
#179 = PERSON_AND_ORGANIZATION ( #173, #62 ) ;
#180 = CARTESIAN_POINT ( 'NONE',  ( 4.638320795419788087E-14, -1.626903931100935612E-15, 13.28467875173191715 ) ) ;
#181 = CONICAL_SURFACE ( 'NONE', #37, 1.199999999999992184, 0.7853981633974338461 ) ;
#182 = CC_DESIGN_PERSON_AND_ORGANIZATION_ASSIGNMENT ( #12, #174, ( #142 ) ) ;
#183 = ADVANCED_FACE ( 'NONE', ( #191 ), #74, .F. ) ;
#184 = AXIS2_PLACEMENT_3D ( 'NONE', #6, #53, #187 ) ;
#185 = APPROVAL ( #209, 'UNSPECIFIED' ) ;
#186 = MANIFOLD_SOLID_BREP ( 'Corps-Déplacer/Copier1[2]', #77 ) ;
#187 = DIRECTION ( 'NONE',  ( 0.0000000000000000000, -1.000000000000000000, 0.0000000000000000000 ) ) ;
#188 = FACE_OUTER_BOUND ( 'NONE', #215, .T. ) ;
#189 = ADVANCED_FACE ( 'NONE', ( #26 ), #155, .T. ) ;
#190 = VERTEX_POINT ( 'NONE', #216 ) ;
#191 = FACE_OUTER_BOUND ( 'NONE', #8, .T. ) ;
#192 = APPROVAL_DATE_TIME ( #118, #185 ) ;
#193 = EDGE_LOOP ( 'NONE', ( #103 ) ) ;
#194 = CARTESIAN_POINT ( 'NONE',  ( 6.995284408225970686E-16, -0.4499999999999999001, 0.2003529083888441198 ) ) ;
#195 = LOCAL_TIME ( 11, 34, 25.00000000000000000, #71 ) ;
#196 = ORIENTED_EDGE ( 'NONE', *, *, #178, .T. ) ;
#197 = PERSON_AND_ORGANIZATION ( #173, #62 ) ;
#198 = CALENDAR_DATE ( 2021, 15, 10 ) ;
#199 = CARTESIAN_POINT ( 'NONE',  ( 0.0000000000000000000, 0.0000000000000000000, 0.0000000000000000000 ) ) ;
#200 = DIRECTION ( 'NONE',  ( 3.491481338843133355E-15, -1.224646799147353700E-16, 1.000000000000000000 ) ) ;
#201 = DIRECTION ( 'NONE',  ( 3.491481338843133355E-15, -1.224646799147353700E-16, 1.000000000000000000 ) ) ;
#202 = DIRECTION ( 'NONE',  ( 0.0000000000000000000, -1.000000000000000000, 0.0000000000000000000 ) ) ;
#203 = FACE_OUTER_BOUND ( 'NONE', #210, .T. ) ;
#204 = DIRECTION ( 'NONE',  ( 3.491481338843133355E-15, -1.224646799147353700E-16, 1.000000000000000000 ) ) ;
#205 = CARTESIAN_POINT ( 'NONE',  ( 3.986801507907705387E-14, -1.398381727313700972E-15, 11.41865334794741038 ) ) ;
#206 = DIRECTION ( 'NONE',  ( 0.0000000000000000000, -1.000000000000000000, 0.0000000000000000000 ) ) ;
#207 = DIRECTION ( 'NONE',  ( 3.491481338843133355E-15, -1.224646799147353700E-16, 1.000000000000000000 ) ) ;
#208 = AXIS2_PLACEMENT_3D ( 'NONE', #163, #148, #70 ) ;
#209 = APPROVAL_STATUS ( 'not_yet_approved' ) ;
#210 = EDGE_LOOP ( 'NONE', ( #25 ) ) ;
#211 = PERSON_AND_ORGANIZATION ( #173, #62 ) ;
#212 = ORIENTED_EDGE ( 'NONE', *, *, #98, .T. ) ;
#213 = COORDINATED_UNIVERSAL_TIME_OFFSET ( 1, 0, .AHEAD. ) ;
#214 = CC_DESIGN_APPROVAL ( #138, ( #142 ) ) ;
#215 = EDGE_LOOP ( 'NONE', ( #121 ) ) ;
#216 = CARTESIAN_POINT ( 'NONE',  ( 3.986801507907705387E-14, -1.499999999999991340, 11.41865334794741038 ) ) ;
#217 = DIRECTION ( 'NONE',  ( 4.275831445896961234E-31, 1.000000000000000000, 1.224646799147353700E-16 ) ) ;
#218 = ORIENTED_EDGE ( 'NONE', *, *, #52, .T. ) ;
#219 = SECURITY_CLASSIFICATION_LEVEL ( 'unclassified' ) ;
#220 = CARTESIAN_POINT ( 'NONE',  ( 1.316288464743860707E-13, -4.616918432785521870E-15, 37.69999999999998153 ) ) ;
#221 = AXIS2_PLACEMENT_3D ( 'NONE', #159, #84, #161 ) ;
#222 = CLOSED_SHELL ( 'NONE', ( #72, #68, #183, #63, #47, #122 ) ) ;
#223 = PRODUCT_DEFINITION_SHAPE ( 'NONE', 'NONE',  #136 ) ;
#224 = DATE_AND_TIME ( #31, #85 ) ;
#225 = DIRECTION ( 'NONE',  ( 3.491481338843133355E-15, -1.224646799147353700E-16, 1.000000000000000000 ) ) ;
#226 = DIRECTION ( 'NONE',  ( -4.275831445896960358E-31, -1.000000000000000000, -1.224646799147353700E-16 ) ) ;
#227 = CIRCLE ( 'NONE', #184, 0.4499999999999999001 ) ;
#228 = DIRECTION ( 'NONE',  ( 0.0000000000000000000, 1.000000000000000000, 0.0000000000000000000 ) ) ;
#229 = DATE_TIME_ROLE ( 'creation_date' ) ;
#230 = ADVANCED_FACE ( 'NONE', ( #91, #100 ), #102, .T. ) ;
#231 = VERTEX_POINT ( 'NONE', #234 ) ;
#232 = AXIS2_PLACEMENT_3D ( 'NONE', #51, #200, #28 ) ;
#233 = CC_DESIGN_DATE_AND_TIME_ASSIGNMENT ( #147, #229, ( #136 ) ) ;
#234 = CARTESIAN_POINT ( 'NONE',  ( 2.618611004132350016E-14, -0.4500000000000008438, 7.500000000000000000 ) ) ;
#235 = DIRECTION ( 'NONE',  ( -3.491481338843133355E-15, 1.224646799147353700E-16, -1.000000000000000000 ) ) ;
#236 = APPROVAL_ROLE ( '' ) ;
#237 = ORIENTED_EDGE ( 'NONE', *, *, #241, .F. ) ;
#238 = DIRECTION ( 'NONE',  ( 1.000000000000000000, 0.0000000000000000000, 0.0000000000000000000 ) ) ;
#239 = AXIS2_PLACEMENT_3D ( 'NONE', #34, #145, #228 ) ;
#240 = EDGE_LOOP ( 'NONE', ( #64 ) ) ;
#241 = EDGE_CURVE ( 'NONE', #190, #190, #109, .T. ) ;
#242 = ORIENTED_EDGE ( 'NONE', *, *, #52, .F. ) ;
#243 = PRODUCT ( '956664', '956664', '', ( #38 ) ) ;
ENDSEC;
END-ISO-10303-21;
