ISO-10303-21;
HEADER;
FILE_DESCRIPTION (( 'STEP AP203' ),
    '1' );
FILE_NAME ('956663.step',
    '2021-10-15T09:34:24',
    ( '' ),
    ( '' ),
    'SwSTEP 2.0',
    'SolidWorks 2019',
    '' );
FILE_SCHEMA (( 'CONFIG_CONTROL_DESIGN' ));
ENDSEC;

DATA;
#1 = PRODUCT_DEFINITION_FORMATION_WITH_SPECIFIED_SOURCE ( 'ANY', '', #201, .NOT_KNOWN. ) ;
#2 = CALENDAR_DATE ( 2021, 15, 10 ) ;
#3 = ORIENTED_EDGE ( 'NONE', *, *, #225, .T. ) ;
#4 = PERSON_AND_ORGANIZATION_ROLE ( 'design_owner' ) ;
#5 =( LENGTH_UNIT ( ) NAMED_UNIT ( * ) SI_UNIT ( .MILLI., .METRE. ) );
#6 = CIRCLE ( 'NONE', #78, 1.499999999999989786 ) ;
#7 = ORIENTED_EDGE ( 'NONE', *, *, #122, .F. ) ;
#8 = DATE_AND_TIME ( #2, #164 ) ;
#9 = CYLINDRICAL_SURFACE ( 'NONE', #220, 0.3999999999999999667 ) ;
#10 = PRODUCT_RELATED_PRODUCT_CATEGORY ( 'detail', '', ( #201 ) ) ;
#11 = DATE_TIME_ROLE ( 'creation_date' ) ;
#12 = FACE_OUTER_BOUND ( 'NONE', #149, .T. ) ;
#13 = FACE_OUTER_BOUND ( 'NONE', #70, .T. ) ;
#14 = CC_DESIGN_SECURITY_CLASSIFICATION ( #133, ( #1 ) ) ;
#15 = SECURITY_CLASSIFICATION_LEVEL ( 'unclassified' ) ;
#16 = FACE_OUTER_BOUND ( 'NONE', #212, .T. ) ;
#17 = PERSON_AND_ORGANIZATION_ROLE ( 'classification_officer' ) ;
#18 = DIRECTION ( 'NONE',  ( -3.491481338843133355E-15, 1.224646799147353700E-16, -1.000000000000000000 ) ) ;
#19 = MANIFOLD_SOLID_BREP ( 'Corps-Déplacer/Copier1[1]', #176 ) ;
#20 = ORIENTED_EDGE ( 'NONE', *, *, #243, .T. ) ;
#21 = AXIS2_PLACEMENT_3D ( 'NONE', #121, #193, #26 ) ;
#22 =( NAMED_UNIT ( * ) SI_UNIT ( $, .STERADIAN. ) SOLID_ANGLE_UNIT ( ) );
#23 = VERTEX_POINT ( 'NONE', #28 ) ;
#24 = EDGE_LOOP ( 'NONE', ( #153 ) ) ;
#25 = VERTEX_POINT ( 'NONE', #137 ) ;
#26 = DIRECTION ( 'NONE',  ( 0.0000000000000000000, -1.000000000000000000, 0.0000000000000000000 ) ) ;
#27 = APPROVAL_ROLE ( '' ) ;
#28 = CARTESIAN_POINT ( 'NONE',  ( 1.326762908760390170E-13, 1.199999999999987521, 37.99999999999999289 ) ) ;
#29 = CARTESIAN_POINT ( 'NONE',  ( 1.316288464743860707E-13, -4.616918432785521870E-15, 37.69999999999998153 ) ) ;
#30 = PLANE ( 'NONE',  #223 ) ;
#31 = AXIS2_PLACEMENT_3D ( 'NONE', #171, #199, #77 ) ;
#32 = DIRECTION ( 'NONE',  ( 0.0000000000000000000, -1.000000000000000000, 0.0000000000000000000 ) ) ;
#33 = DIRECTION ( 'NONE',  ( -3.491481338843133355E-15, 1.224646799147353700E-16, -1.000000000000000000 ) ) ;
#34 = DATE_AND_TIME ( #91, #141 ) ;
#35 = CC_DESIGN_PERSON_AND_ORGANIZATION_ASSIGNMENT ( #241, #17, ( #133 ) ) ;
#36 = APPROVAL_PERSON_ORGANIZATION ( #203, #53, #221 ) ;
#37 = ADVANCED_FACE ( 'NONE', ( #104 ), #63, .T. ) ;
#38 = ORIENTED_EDGE ( 'NONE', *, *, #98, .T. ) ;
#39 = PERSON_AND_ORGANIZATION ( #182, #183 ) ;
#40 = ORIENTED_EDGE ( 'NONE', *, *, #142, .T. ) ;
#41 = LOCAL_TIME ( 11, 34, 24.00000000000000000, #226 ) ;
#42 = ORIENTED_EDGE ( 'NONE', *, *, #142, .F. ) ;
#43 = VERTEX_POINT ( 'NONE', #118 ) ;
#44 = CC_DESIGN_DATE_AND_TIME_ASSIGNMENT ( #238, #198, ( #133 ) ) ;
#45 = APPROVAL_STATUS ( 'not_yet_approved' ) ;
#46 = ORIENTED_EDGE ( 'NONE', *, *, #131, .F. ) ;
#47 = AXIS2_PLACEMENT_3D ( 'NONE', #181, #18, #107 ) ;
#48 = DIRECTION ( 'NONE',  ( 1.000000000000000000, 0.0000000000000000000, 0.0000000000000000000 ) ) ;
#49 = CIRCLE ( 'NONE', #80, 0.3999999999999999667 ) ;
#50 = PLANE ( 'NONE',  #200 ) ;
#51 = DATE_AND_TIME ( #67, #41 ) ;
#52 = CARTESIAN_POINT ( 'NONE',  ( 4.354324590286683653E-14, -1.527291471564924263E-15, 12.47128129211037084 ) ) ;
#53 = APPROVAL ( #222, 'UNSPECIFIED' ) ;
#54 = CARTESIAN_POINT ( 'NONE',  ( 8.379555213223520053E-15, 1.124819836996384585E-32, 2.400000000000000355 ) ) ;
#55 = AXIS2_PLACEMENT_3D ( 'NONE', #97, #234, #175 ) ;
#56 = DIRECTION ( 'NONE',  ( 3.491481338843133355E-15, -1.224646799147353700E-16, 1.000000000000000000 ) ) ;
#57 = PRODUCT_DEFINITION_SHAPE ( 'NONE', 'NONE',  #163 ) ;
#58 = APPROVAL_DATE_TIME ( #51, #207 ) ;
#59 = CC_DESIGN_PERSON_AND_ORGANIZATION_ASSIGNMENT ( #242, #180, ( #1 ) ) ;
#60 = CIRCLE ( 'NONE', #21, 0.3999999999999999667 ) ;
#61 = APPROVAL_PERSON_ORGANIZATION ( #71, #82, #27 ) ;
#62 = CLOSED_SHELL ( 'NONE', ( #166, #37, #205 ) ) ;
#63 = CONICAL_SURFACE ( 'NONE', #132, 0.3999999999999999112, 1.151917306316247336 ) ;
#64 = ORIENTED_EDGE ( 'NONE', *, *, #99, .T. ) ;
#65 = APPLICATION_PROTOCOL_DEFINITION ( 'international standard', 'config_control_design', 1994, #191 ) ;
#66 = DIRECTION ( 'NONE',  ( -4.814824860968090508E-31, -1.000000000000000000, -1.355252715606880789E-16 ) ) ;
#67 = CALENDAR_DATE ( 2021, 15, 10 ) ;
#68 = DIRECTION ( 'NONE',  ( -4.814824860968090508E-31, -1.000000000000000000, -1.355252715606880789E-16 ) ) ;
#69 = MECHANICAL_CONTEXT ( 'NONE', #191, 'mechanical' ) ;
#70 = EDGE_LOOP ( 'NONE', ( #165 ) ) ;
#71 = PERSON_AND_ORGANIZATION ( #182, #183 ) ;
#72 = DIRECTION ( 'NONE',  ( 3.491481338843133355E-15, -1.224646799147353700E-16, 1.000000000000000000 ) ) ;
#73 = PLANE ( 'NONE',  #177 ) ;
#74 = LOCAL_TIME ( 11, 34, 24.00000000000000000, #136 ) ;
#75 = DIRECTION ( 'NONE',  ( 0.0000000000000000000, 1.000000000000000000, 0.0000000000000000000 ) ) ;
#76 = DIRECTION ( 'NONE',  ( -3.491481338843133355E-15, 1.224646799147353700E-16, -1.000000000000000000 ) ) ;
#77 = DIRECTION ( 'NONE',  ( 0.0000000000000000000, 1.000000000000000000, 0.0000000000000000000 ) ) ;
#78 = AXIS2_PLACEMENT_3D ( 'NONE', #214, #174, #157 ) ;
#79 = CARTESIAN_POINT ( 'NONE',  ( 6.218030585089834771E-16, -2.180991537406805462E-17, 0.1780914741234193577 ) ) ;
#80 = AXIS2_PLACEMENT_3D ( 'NONE', #138, #72, #115 ) ;
#81 = CC_DESIGN_APPROVAL ( #207, ( #1 ) ) ;
#82 = APPROVAL ( #45, 'UNSPECIFIED' ) ;
#83 = APPROVAL_STATUS ( 'not_yet_approved' ) ;
#84 = CARTESIAN_POINT ( 'NONE',  ( 6.218030585089834771E-16, -2.180991537406805462E-17, 0.1780914741234193577 ) ) ;
#85 = APPLICATION_PROTOCOL_DEFINITION ( 'international standard', 'config_control_design', 1994, #228 ) ;
#86 = CONICAL_SURFACE ( 'NONE', #148, 1.999999999999992673, 0.2617993877991412477 ) ;
#87 = DIRECTION ( 'NONE',  ( 0.0000000000000000000, 0.0000000000000000000, 1.000000000000000000 ) ) ;
#88 = EDGE_LOOP ( 'NONE', ( #20 ) ) ;
#89 = PERSON_AND_ORGANIZATION_ROLE ( 'creator' ) ;
#90 = DIRECTION ( 'NONE',  ( 3.491481338843133355E-15, -1.224646799147353700E-16, 1.000000000000000000 ) ) ;
#91 = CALENDAR_DATE ( 2021, 15, 10 ) ;
#92 = FACE_OUTER_BOUND ( 'NONE', #231, .T. ) ;
#93 = AXIS2_PLACEMENT_3D ( 'NONE', #95, #160, #75 ) ;
#94 = AXIS2_PLACEMENT_3D ( 'NONE', #213, #87, #48 ) ;
#95 = CARTESIAN_POINT ( 'NONE',  ( 1.326762908760390170E-13, -4.653657836759943518E-15, 37.99999999999999289 ) ) ;
#96 = COORDINATED_UNIVERSAL_TIME_OFFSET ( 1, 0, .AHEAD. ) ;
#97 = CARTESIAN_POINT ( 'NONE',  ( 2.269462870248036365E-14, -7.960204194457801393E-16, 6.499999999999999112 ) ) ;
#98 = EDGE_CURVE ( 'NONE', #100, #100, #109, .T. ) ;
#99 = EDGE_CURVE ( 'NONE', #106, #106, #60, .T. ) ;
#100 = VERTEX_POINT ( 'NONE', #211 ) ;
#101 = EDGE_LOOP ( 'NONE', ( #187 ) ) ;
#102 = FACE_OUTER_BOUND ( 'NONE', #168, .T. ) ;
#103 = COORDINATED_UNIVERSAL_TIME_OFFSET ( 1, 0, .AHEAD. ) ;
#104 = FACE_OUTER_BOUND ( 'NONE', #116, .T. ) ;
#105 = ADVANCED_FACE ( 'NONE', ( #102 ), #73, .F. ) ;
#106 = VERTEX_POINT ( 'NONE', #173 ) ;
#107 = DIRECTION ( 'NONE',  ( 4.275831445896961234E-31, 1.000000000000000000, 1.224646799147353700E-16 ) ) ;
#108 = FACE_OUTER_BOUND ( 'NONE', #194, .T. ) ;
#109 = CIRCLE ( 'NONE', #158, 0.3999999999999999112 ) ;
#110 = DIRECTION ( 'NONE',  ( 3.491481338843133355E-15, -1.224646799147353700E-16, 1.000000000000000000 ) ) ;
#111 = DIRECTION ( 'NONE',  ( 0.0000000000000000000, -1.000000000000000000, 0.0000000000000000000 ) ) ;
#112 = AXIS2_PLACEMENT_3D ( 'NONE', #233, #56, #111 ) ;
#113 = ADVANCED_FACE ( 'NONE', ( #12, #216 ), #155, .T. ) ;
#114 = EDGE_LOOP ( 'NONE', ( #3 ) ) ;
#115 = DIRECTION ( 'NONE',  ( 0.0000000000000000000, -1.000000000000000000, 0.0000000000000000000 ) ) ;
#116 = EDGE_LOOP ( 'NONE', ( #227 ) ) ;
#117 = CC_DESIGN_APPROVAL ( #53, ( #133 ) ) ;
#118 = CARTESIAN_POINT ( 'NONE',  ( 2.269462870248036365E-14, -0.4000000000000007994, 6.499999999999999112 ) ) ;
#119 = ORIENTED_EDGE ( 'NONE', *, *, #243, .F. ) ;
#120 = VERTEX_POINT ( 'NONE', #152 ) ;
#121 = CARTESIAN_POINT ( 'NONE',  ( 8.379555213223516897E-15, -2.939152317953647106E-16, 2.399999999999999467 ) ) ;
#122 = EDGE_CURVE ( 'NONE', #23, #23, #147, .T. ) ;
#123 = EDGE_LOOP ( 'NONE', ( #38 ) ) ;
#124 = CIRCLE ( 'NONE', #55, 0.3999999999999999667 ) ;
#125 = DATE_AND_TIME ( #167, #74 ) ;
#126 = FACE_BOUND ( 'NONE', #101, .T. ) ;
#127 = COORDINATED_UNIVERSAL_TIME_OFFSET ( 1, 0, .AHEAD. ) ;
#128 = DIRECTION ( 'NONE',  ( 3.491481338843133355E-15, -1.224646799147353700E-16, 1.000000000000000000 ) ) ;
#129 = DIRECTION ( 'NONE',  ( -4.275831445896960358E-31, -1.000000000000000000, -1.224646799147353700E-16 ) ) ;
#130 = FACE_OUTER_BOUND ( 'NONE', #230, .T. ) ;
#131 = EDGE_CURVE ( 'NONE', #43, #43, #124, .T. ) ;
#132 = AXIS2_PLACEMENT_3D ( 'NONE', #79, #135, #66 ) ;
#133 = SECURITY_CLASSIFICATION ( '', '', #15 ) ;
#134 = CC_DESIGN_PERSON_AND_ORGANIZATION_ASSIGNMENT ( #154, #4, ( #201 ) ) ;
#135 = DIRECTION ( 'NONE',  ( 3.491481338843133355E-15, -1.224646799147353700E-16, 1.000000000000000000 ) ) ;
#136 = COORDINATED_UNIVERSAL_TIME_OFFSET ( 1, 0, .AHEAD. ) ;
#137 = CARTESIAN_POINT ( 'NONE',  ( 3.702805302774600321E-14, -1.499999999999991118, 10.60525588832586230 ) ) ;
#138 = CARTESIAN_POINT ( 'NONE',  ( 8.379555213223516897E-15, -2.939152317953647106E-16, 2.399999999999999467 ) ) ;
#139 = CC_DESIGN_PERSON_AND_ORGANIZATION_ASSIGNMENT ( #208, #89, ( #163 ) ) ;
#140 = DIRECTION ( 'NONE',  ( 0.0000000000000000000, -1.000000000000000000, 0.0000000000000000000 ) ) ;
#141 = LOCAL_TIME ( 11, 34, 24.00000000000000000, #127 ) ;
#142 = EDGE_CURVE ( 'NONE', #120, #120, #206, .T. ) ;
#143 = DIRECTION ( 'NONE',  ( 4.275831445896960358E-31, 1.000000000000000000, 1.224646799147353700E-16 ) ) ;
#144 = DIRECTION ( 'NONE',  ( 0.0000000000000000000, 1.000000000000000000, 0.0000000000000000000 ) ) ;
#145 = CARTESIAN_POINT ( 'NONE',  ( 1.316288464743860707E-13, -4.616918432785521870E-15, 37.69999999999998153 ) ) ;
#146 = CALENDAR_DATE ( 2021, 15, 10 ) ;
#147 = CIRCLE ( 'NONE', #93, 1.199999999999992184 ) ;
#148 = AXIS2_PLACEMENT_3D ( 'NONE', #52, #128, #140 ) ;
#149 = EDGE_LOOP ( 'NONE', ( #46 ) ) ;
#150 = APPROVAL_ROLE ( '' ) ;
#151 = ORIENTED_EDGE ( 'NONE', *, *, #225, .F. ) ;
#152 = CARTESIAN_POINT ( 'NONE',  ( 1.316288464743860707E-13, 1.499999999999987566, 37.69999999999998153 ) ) ;
#153 = ORIENTED_EDGE ( 'NONE', *, *, #131, .T. ) ;
#154 = PERSON_AND_ORGANIZATION ( #182, #183 ) ;
#155 = CYLINDRICAL_SURFACE ( 'NONE', #112, 0.3999999999999999667 ) ;
#156 = PERSON_AND_ORGANIZATION_ROLE ( 'design_supplier' ) ;
#157 = DIRECTION ( 'NONE',  ( 0.0000000000000000000, -1.000000000000000000, 0.0000000000000000000 ) ) ;
#158 = AXIS2_PLACEMENT_3D ( 'NONE', #84, #209, #68 ) ;
#159 =( GEOMETRIC_REPRESENTATION_CONTEXT ( 3 ) GLOBAL_UNCERTAINTY_ASSIGNED_CONTEXT ( ( #186 ) ) GLOBAL_UNIT_ASSIGNED_CONTEXT ( ( #5, #195, #22 ) ) REPRESENTATION_CONTEXT ( 'NONE', 'WORKASPACE' ) );
#160 = DIRECTION ( 'NONE',  ( -3.491481338843133355E-15, 1.224646799147353700E-16, -1.000000000000000000 ) ) ;
#161 = CYLINDRICAL_SURFACE ( 'NONE', #47, 1.499999999999989786 ) ;
#162 = ADVANCED_FACE ( 'NONE', ( #130 ), #30, .F. ) ;
#163 = PRODUCT_DEFINITION ( 'UNKNOWN', '', #1, #204 ) ;
#164 = LOCAL_TIME ( 11, 34, 24.00000000000000000, #103 ) ;
#165 = ORIENTED_EDGE ( 'NONE', *, *, #99, .F. ) ;
#166 = ADVANCED_FACE ( 'NONE', ( #92 ), #50, .T. ) ;
#167 = CALENDAR_DATE ( 2021, 15, 10 ) ;
#168 = EDGE_LOOP ( 'NONE', ( #119 ) ) ;
#169 = CARTESIAN_POINT ( 'NONE',  ( 8.379555213223516897E-15, -0.4000000000000002442, 2.399999999999999467 ) ) ;
#170 = CC_DESIGN_DATE_AND_TIME_ASSIGNMENT ( #125, #11, ( #163 ) ) ;
#171 = CARTESIAN_POINT ( 'NONE',  ( 1.326762908760390170E-13, -4.653657836759943518E-15, 37.99999999999999289 ) ) ;
#172 = ADVANCED_BREP_SHAPE_REPRESENTATION ( '956663', ( #19, #185, #94 ), #159 ) ;
#173 = CARTESIAN_POINT ( 'NONE',  ( 8.379555213223516897E-15, -0.4000000000000002442, 2.399999999999999467 ) ) ;
#174 = DIRECTION ( 'NONE',  ( -3.491481338843133355E-15, 1.224646799147353700E-16, -1.000000000000000000 ) ) ;
#175 = DIRECTION ( 'NONE',  ( 0.0000000000000000000, -1.000000000000000000, 0.0000000000000000000 ) ) ;
#176 = CLOSED_SHELL ( 'NONE', ( #236, #190, #162, #113, #210, #105 ) ) ;
#177 = AXIS2_PLACEMENT_3D ( 'NONE', #202, #90, #237 ) ;
#178 = PERSON_AND_ORGANIZATION ( #182, #183 ) ;
#179 = FACE_OUTER_BOUND ( 'NONE', #114, .T. ) ;
#180 = PERSON_AND_ORGANIZATION_ROLE ( 'creator' ) ;
#181 = CARTESIAN_POINT ( 'NONE',  ( 0.0000000000000000000, 0.0000000000000000000, 0.0000000000000000000 ) ) ;
#182 = PERSON ( 'UNSPECIFIED', 'UNSPECIFIED', 'UNSPECIFIED', ('UNSPECIFIED'), ('UNSPECIFIED'), ('UNSPECIFIED') ) ;
#183 = ORGANIZATION ( 'UNSPECIFIED', 'UNSPECIFIED', '' ) ;
#184 = CONICAL_SURFACE ( 'NONE', #31, 1.199999999999992184, 0.7853981633974338461 ) ;
#185 = MANIFOLD_SOLID_BREP ( 'Corps-Déplacer/Copier1[2]', #62 ) ;
#186 = UNCERTAINTY_MEASURE_WITH_UNIT (LENGTH_MEASURE( 1.000000000000000082E-05 ), #5, 'distance_accuracy_value', 'NONE');
#187 = ORIENTED_EDGE ( 'NONE', *, *, #122, .T. ) ;
#188 = APPROVAL_PERSON_ORGANIZATION ( #39, #207, #150 ) ;
#189 = EDGE_LOOP ( 'NONE', ( #151 ) ) ;
#190 = ADVANCED_FACE ( 'NONE', ( #108, #126 ), #184, .T. ) ;
#191 = APPLICATION_CONTEXT ( 'configuration controlled 3d designs of mechanical parts and assemblies' ) ;
#192 = VERTEX_POINT ( 'NONE', #169 ) ;
#193 = DIRECTION ( 'NONE',  ( 3.491481338843133355E-15, -1.224646799147353700E-16, 1.000000000000000000 ) ) ;
#194 = EDGE_LOOP ( 'NONE', ( #42 ) ) ;
#195 =( NAMED_UNIT ( * ) PLANE_ANGLE_UNIT ( ) SI_UNIT ( $, .RADIAN. ) );
#196 = DIRECTION ( 'NONE',  ( 3.491481338843133355E-15, -1.224646799147353700E-16, 1.000000000000000000 ) ) ;
#197 = FACE_OUTER_BOUND ( 'NONE', #123, .T. ) ;
#198 = DATE_TIME_ROLE ( 'classification_date' ) ;
#199 = DIRECTION ( 'NONE',  ( -3.491481338843133355E-15, 1.224646799147353700E-16, -1.000000000000000000 ) ) ;
#200 = AXIS2_PLACEMENT_3D ( 'NONE', #54, #196, #129 ) ;
#201 = PRODUCT ( '956663', '956663', '', ( #69 ) ) ;
#202 = CARTESIAN_POINT ( 'NONE',  ( 8.379555213223520053E-15, 1.124819836996384585E-32, 2.400000000000000355 ) ) ;
#203 = PERSON_AND_ORGANIZATION ( #182, #183 ) ;
#204 = DESIGN_CONTEXT ( 'detailed design', #228, 'design' ) ;
#205 = ADVANCED_FACE ( 'NONE', ( #13, #197 ), #9, .T. ) ;
#206 = CIRCLE ( 'NONE', #229, 1.499999999999992006 ) ;
#207 = APPROVAL ( #83, 'UNSPECIFIED' ) ;
#208 = PERSON_AND_ORGANIZATION ( #182, #183 ) ;
#209 = DIRECTION ( 'NONE',  ( 3.491481338843133355E-15, -1.224646799147353700E-16, 1.000000000000000000 ) ) ;
#210 = ADVANCED_FACE ( 'NONE', ( #239, #179 ), #86, .T. ) ;
#211 = CARTESIAN_POINT ( 'NONE',  ( 6.218030585089832799E-16, -0.3999999999999999112, 0.1780914741234193022 ) ) ;
#212 = EDGE_LOOP ( 'NONE', ( #40 ) ) ;
#213 = CARTESIAN_POINT ( 'NONE',  ( 0.0000000000000000000, 0.0000000000000000000, 0.0000000000000000000 ) ) ;
#214 = CARTESIAN_POINT ( 'NONE',  ( 3.702805302774600321E-14, -1.298769267777689426E-15, 10.60525588832586230 ) ) ;
#215 = CC_DESIGN_APPROVAL ( #82, ( #163 ) ) ;
#216 = FACE_OUTER_BOUND ( 'NONE', #88, .T. ) ;
#217 = CARTESIAN_POINT ( 'NONE',  ( 1.326762908760390170E-13, 8.998558695971025223E-33, 37.99999999999999289 ) ) ;
#218 = APPROVAL_DATE_TIME ( #34, #53 ) ;
#219 = FACE_OUTER_BOUND ( 'NONE', #189, .T. ) ;
#220 = AXIS2_PLACEMENT_3D ( 'NONE', #29, #110, #32 ) ;
#221 = APPROVAL_ROLE ( '' ) ;
#222 = APPROVAL_STATUS ( 'not_yet_approved' ) ;
#223 = AXIS2_PLACEMENT_3D ( 'NONE', #217, #33, #143 ) ;
#224 = LOCAL_TIME ( 11, 34, 24.00000000000000000, #96 ) ;
#225 = EDGE_CURVE ( 'NONE', #25, #25, #6, .T. ) ;
#226 = COORDINATED_UNIVERSAL_TIME_OFFSET ( 1, 0, .AHEAD. ) ;
#227 = ORIENTED_EDGE ( 'NONE', *, *, #98, .F. ) ;
#228 = APPLICATION_CONTEXT ( 'configuration controlled 3d designs of mechanical parts and assemblies' ) ;
#229 = AXIS2_PLACEMENT_3D ( 'NONE', #145, #76, #144 ) ;
#230 = EDGE_LOOP ( 'NONE', ( #7 ) ) ;
#231 = EDGE_LOOP ( 'NONE', ( #64 ) ) ;
#232 = APPROVAL_DATE_TIME ( #8, #82 ) ;
#233 = CARTESIAN_POINT ( 'NONE',  ( 1.316288464743860707E-13, -4.616918432785521870E-15, 37.69999999999998153 ) ) ;
#234 = DIRECTION ( 'NONE',  ( 3.491481338843133355E-15, -1.224646799147353700E-16, 1.000000000000000000 ) ) ;
#235 = SHAPE_DEFINITION_REPRESENTATION ( #57, #172 ) ;
#236 = ADVANCED_FACE ( 'NONE', ( #16, #219 ), #161, .T. ) ;
#237 = DIRECTION ( 'NONE',  ( -4.275831445896960358E-31, -1.000000000000000000, -1.224646799147353700E-16 ) ) ;
#238 = DATE_AND_TIME ( #146, #224 ) ;
#239 = FACE_BOUND ( 'NONE', #24, .T. ) ;
#240 = CC_DESIGN_PERSON_AND_ORGANIZATION_ASSIGNMENT ( #178, #156, ( #1 ) ) ;
#241 = PERSON_AND_ORGANIZATION ( #182, #183 ) ;
#242 = PERSON_AND_ORGANIZATION ( #182, #183 ) ;
#243 = EDGE_CURVE ( 'NONE', #192, #192, #49, .T. ) ;
ENDSEC;
END-ISO-10303-21;
