ISO-10303-21;
HEADER;
FILE_DESCRIPTION (( 'STEP AP203' ),
    '1' );
FILE_NAME ('956662.step',
    '2021-10-15T09:34:24',
    ( '' ),
    ( '' ),
    'SwSTEP 2.0',
    'SolidWorks 2019',
    '' );
FILE_SCHEMA (( 'CONFIG_CONTROL_DESIGN' ));
ENDSEC;

DATA;
#1 = CARTESIAN_POINT ( 'NONE',  ( 7.332110811570578468E-15, 1.124819836996384585E-32, 2.099999999999999645 ) ) ;
#2 = FACE_OUTER_BOUND ( 'NONE', #177, .T. ) ;
#3 = APPROVAL_PERSON_ORGANIZATION ( #172, #26, #4 ) ;
#4 = APPROVAL_ROLE ( '' ) ;
#5 = CALENDAR_DATE ( 2021, 15, 10 ) ;
#6 = PERSON_AND_ORGANIZATION ( #110, #91 ) ;
#7 = CC_DESIGN_PERSON_AND_ORGANIZATION_ASSIGNMENT ( #173, #207, ( #163 ) ) ;
#8 = ADVANCED_BREP_SHAPE_REPRESENTATION ( '956662', ( #87, #17, #62 ), #96 ) ;
#9 = ORIENTED_EDGE ( 'NONE', *, *, #71, .F. ) ;
#10 = AXIS2_PLACEMENT_3D ( 'NONE', #72, #127, #243 ) ;
#11 = DIRECTION ( 'NONE',  ( 0.0000000000000000000, -1.000000000000000000, 0.0000000000000000000 ) ) ;
#12 = CARTESIAN_POINT ( 'NONE',  ( 1.326762908760390170E-13, 8.998558695971025223E-33, 37.99999999999999289 ) ) ;
#13 = CYLINDRICAL_SURFACE ( 'NONE', #156, 1.499999999999989786 ) ;
#14 = AXIS2_PLACEMENT_3D ( 'NONE', #104, #132, #64 ) ;
#15 = CARTESIAN_POINT ( 'NONE',  ( 0.0000000000000000000, 0.0000000000000000000, 0.0000000000000000000 ) ) ;
#16 = DIRECTION ( 'NONE',  ( 0.0000000000000000000, 1.000000000000000000, 0.0000000000000000000 ) ) ;
#17 = MANIFOLD_SOLID_BREP ( 'Corps-Déplacer/Copier1[2]', #170 ) ;
#18 = CARTESIAN_POINT ( 'NONE',  ( 0.0000000000000000000, 0.0000000000000000000, 0.0000000000000000000 ) ) ;
#19 = AXIS2_PLACEMENT_3D ( 'NONE', #148, #203, #11 ) ;
#20 = CIRCLE ( 'NONE', #150, 0.3499999999999998668 ) ;
#21 = CALENDAR_DATE ( 2021, 15, 10 ) ;
#22 = ADVANCED_FACE ( 'NONE', ( #53, #94 ), #13, .T. ) ;
#23 =( LENGTH_UNIT ( ) NAMED_UNIT ( * ) SI_UNIT ( .MILLI., .METRE. ) );
#24 = ADVANCED_FACE ( 'NONE', ( #130, #241 ), #202, .T. ) ;
#25 = ORIENTED_EDGE ( 'NONE', *, *, #131, .F. ) ;
#26 = APPROVAL ( #116, 'UNSPECIFIED' ) ;
#27 = AXIS2_PLACEMENT_3D ( 'NONE', #74, #225, #16 ) ;
#28 = EDGE_LOOP ( 'NONE', ( #54 ) ) ;
#29 = ORIENTED_EDGE ( 'NONE', *, *, #208, .T. ) ;
#30 = PRODUCT_DEFINITION_FORMATION_WITH_SPECIFIED_SOURCE ( 'ANY', '', #217, .NOT_KNOWN. ) ;
#31 = DIRECTION ( 'NONE',  ( -3.491481338843133355E-15, 1.224646799147353700E-16, -1.000000000000000000 ) ) ;
#32 = ADVANCED_FACE ( 'NONE', ( #61 ), #99, .T. ) ;
#33 = FACE_OUTER_BOUND ( 'NONE', #86, .T. ) ;
#34 = DIRECTION ( 'NONE',  ( 4.275831445896961234E-31, 1.000000000000000000, 1.224646799147353700E-16 ) ) ;
#35 = DIRECTION ( 'NONE',  ( 0.0000000000000000000, -1.000000000000000000, 0.0000000000000000000 ) ) ;
#36 = LOCAL_TIME ( 11, 34, 24.00000000000000000, #190 ) ;
#37 = ADVANCED_FACE ( 'NONE', ( #2 ), #73, .T. ) ;
#38 = DIRECTION ( 'NONE',  ( 0.0000000000000000000, 1.000000000000000000, 0.0000000000000000000 ) ) ;
#39 = CC_DESIGN_PERSON_AND_ORGANIZATION_ASSIGNMENT ( #239, #233, ( #56 ) ) ;
#40 = VERTEX_POINT ( 'NONE', #136 ) ;
#41 = APPLICATION_PROTOCOL_DEFINITION ( 'international standard', 'config_control_design', 1994, #125 ) ;
#42 = CIRCLE ( 'NONE', #179, 1.199999999999992184 ) ;
#43 = APPROVAL_PERSON_ORGANIZATION ( #6, #107, #154 ) ;
#44 =( NAMED_UNIT ( * ) SI_UNIT ( $, .STERADIAN. ) SOLID_ANGLE_UNIT ( ) );
#45 = APPROVAL_STATUS ( 'not_yet_approved' ) ;
#46 = CIRCLE ( 'NONE', #27, 1.499999999999992006 ) ;
#47 = EDGE_CURVE ( 'NONE', #191, #191, #42, .T. ) ;
#48 = APPROVAL ( #51, 'UNSPECIFIED' ) ;
#49 = APPROVAL_DATE_TIME ( #141, #107 ) ;
#50 = EDGE_LOOP ( 'NONE', ( #103 ) ) ;
#51 = APPROVAL_STATUS ( 'not_yet_approved' ) ;
#52 = ADVANCED_FACE ( 'NONE', ( #221, #198 ), #124, .T. ) ;
#53 = FACE_OUTER_BOUND ( 'NONE', #69, .T. ) ;
#54 = ORIENTED_EDGE ( 'NONE', *, *, #131, .T. ) ;
#55 = CYLINDRICAL_SURFACE ( 'NONE', #14, 0.3499999999999999223 ) ;
#56 = SECURITY_CLASSIFICATION ( '', '', #101 ) ;
#57 = CARTESIAN_POINT ( 'NONE',  ( 7.332110811570578468E-15, 1.124819836996384585E-32, 2.099999999999999645 ) ) ;
#58 = DIRECTION ( 'NONE',  ( 4.275831445896960358E-31, 1.000000000000000000, 1.224646799147353700E-16 ) ) ;
#59 = PLANE ( 'NONE',  #171 ) ;
#60 = DESIGN_CONTEXT ( 'detailed design', #204, 'design' ) ;
#61 = FACE_OUTER_BOUND ( 'NONE', #236, .T. ) ;
#62 = AXIS2_PLACEMENT_3D ( 'NONE', #18, #152, #95 ) ;
#63 = CARTESIAN_POINT ( 'NONE',  ( 7.332110811570572157E-15, -0.3500000000000001998, 2.099999999999997868 ) ) ;
#64 = DIRECTION ( 'NONE',  ( 0.0000000000000000000, -1.000000000000000000, 0.0000000000000000000 ) ) ;
#65 = AXIS2_PLACEMENT_3D ( 'NONE', #98, #228, #115 ) ;
#66 = CALENDAR_DATE ( 2021, 15, 10 ) ;
#67 = AXIS2_PLACEMENT_3D ( 'NONE', #109, #128, #168 ) ;
#68 = ORIENTED_EDGE ( 'NONE', *, *, #118, .T. ) ;
#69 = EDGE_LOOP ( 'NONE', ( #68 ) ) ;
#70 = CARTESIAN_POINT ( 'NONE',  ( 1.955229549752154995E-14, -6.858022075225187427E-16, 5.600000000000000533 ) ) ;
#71 = EDGE_CURVE ( 'NONE', #40, #40, #206, .T. ) ;
#72 = CARTESIAN_POINT ( 'NONE',  ( 5.440776761953454308E-16, -1.908367595230925890E-17, 0.1558300398579876012 ) ) ;
#73 = PLANE ( 'NONE',  #145 ) ;
#74 = CARTESIAN_POINT ( 'NONE',  ( 1.316288464743860707E-13, -4.616918432785521870E-15, 37.69999999999998153 ) ) ;
#75 = DIRECTION ( 'NONE',  ( 0.0000000000000000000, 1.000000000000000000, 0.0000000000000000000 ) ) ;
#76 = CC_DESIGN_DATE_AND_TIME_ASSIGNMENT ( #174, #151, ( #163 ) ) ;
#77 = VERTEX_POINT ( 'NONE', #134 ) ;
#78 = APPROVAL_PERSON_ORGANIZATION ( #180, #48, #85 ) ;
#79 = ADVANCED_FACE ( 'NONE', ( #33, #186 ), #126, .T. ) ;
#80 = APPLICATION_PROTOCOL_DEFINITION ( 'international standard', 'config_control_design', 1994, #204 ) ;
#81 = AXIS2_PLACEMENT_3D ( 'NONE', #223, #92, #75 ) ;
#82 = CARTESIAN_POINT ( 'NONE',  ( 7.332110811570572157E-15, -0.3500000000000001998, 2.099999999999997868 ) ) ;
#83 = LOCAL_TIME ( 11, 34, 24.00000000000000000, #178 ) ;
#84 = EDGE_LOOP ( 'NONE', ( #211 ) ) ;
#85 = APPROVAL_ROLE ( '' ) ;
#86 = EDGE_LOOP ( 'NONE', ( #140 ) ) ;
#87 = MANIFOLD_SOLID_BREP ( 'Corps-Déplacer/Copier1[1]', #216 ) ;
#88 = DIRECTION ( 'NONE',  ( -4.275831445896960358E-31, -1.000000000000000000, -1.224646799147353700E-16 ) ) ;
#89 = FACE_OUTER_BOUND ( 'NONE', #121, .T. ) ;
#90 = CC_DESIGN_PERSON_AND_ORGANIZATION_ASSIGNMENT ( #187, #112, ( #217 ) ) ;
#91 = ORGANIZATION ( 'UNSPECIFIED', 'UNSPECIFIED', '' ) ;
#92 = DIRECTION ( 'NONE',  ( -3.491481338843133355E-15, 1.224646799147353700E-16, -1.000000000000000000 ) ) ;
#93 = CARTESIAN_POINT ( 'NONE',  ( 1.316288464743860707E-13, -4.616918432785521870E-15, 37.69999999999998153 ) ) ;
#94 = FACE_OUTER_BOUND ( 'NONE', #117, .T. ) ;
#95 = DIRECTION ( 'NONE',  ( 1.000000000000000000, 0.0000000000000000000, 0.0000000000000000000 ) ) ;
#96 =( GEOMETRIC_REPRESENTATION_CONTEXT ( 3 ) GLOBAL_UNCERTAINTY_ASSIGNED_CONTEXT ( ( #201 ) ) GLOBAL_UNIT_ASSIGNED_CONTEXT ( ( #23, #209, #44 ) ) REPRESENTATION_CONTEXT ( 'NONE', 'WORKASPACE' ) );
#97 = VERTEX_POINT ( 'NONE', #63 ) ;
#98 = CARTESIAN_POINT ( 'NONE',  ( 7.332110811570572157E-15, -2.571758278209445408E-16, 2.099999999999997868 ) ) ;
#99 = CONICAL_SURFACE ( 'NONE', #10, 0.3499999999999998668, 1.151917306316257550 ) ;
#100 = ORIENTED_EDGE ( 'NONE', *, *, #240, .F. ) ;
#101 = SECURITY_CLASSIFICATION_LEVEL ( 'unclassified' ) ;
#102 = COORDINATED_UNIVERSAL_TIME_OFFSET ( 1, 0, .AHEAD. ) ;
#103 = ORIENTED_EDGE ( 'NONE', *, *, #47, .T. ) ;
#104 = CARTESIAN_POINT ( 'NONE',  ( 1.316288464743860707E-13, -4.616918432785521870E-15, 37.69999999999998153 ) ) ;
#105 = CC_DESIGN_PERSON_AND_ORGANIZATION_ASSIGNMENT ( #159, #215, ( #30 ) ) ;
#106 = DIRECTION ( 'NONE',  ( 3.491481338843133355E-15, -1.224646799147353700E-16, 1.000000000000000000 ) ) ;
#107 = APPROVAL ( #45, 'UNSPECIFIED' ) ;
#108 = DIRECTION ( 'NONE',  ( 3.491481338843133355E-15, -1.224646799147353700E-16, 1.000000000000000000 ) ) ;
#109 = CARTESIAN_POINT ( 'NONE',  ( 5.440776761953454308E-16, -1.908367595230925890E-17, 0.1558300398579876012 ) ) ;
#110 = PERSON ( 'UNSPECIFIED', 'UNSPECIFIED', 'UNSPECIFIED', ('UNSPECIFIED'), ('UNSPECIFIED'), ('UNSPECIFIED') ) ;
#111 = CARTESIAN_POINT ( 'NONE',  ( 1.326762908760390170E-13, 1.199999999999987521, 37.99999999999999289 ) ) ;
#112 = PERSON_AND_ORGANIZATION_ROLE ( 'design_owner' ) ;
#113 = CC_DESIGN_APPROVAL ( #48, ( #56 ) ) ;
#114 = DATE_AND_TIME ( #21, #149 ) ;
#115 = DIRECTION ( 'NONE',  ( 0.0000000000000000000, -1.000000000000000000, 0.0000000000000000000 ) ) ;
#116 = APPROVAL_STATUS ( 'not_yet_approved' ) ;
#117 = EDGE_LOOP ( 'NONE', ( #142 ) ) ;
#118 = EDGE_CURVE ( 'NONE', #77, #77, #46, .T. ) ;
#119 = ORIENTED_EDGE ( 'NONE', *, *, #47, .F. ) ;
#120 = DATE_AND_TIME ( #235, #83 ) ;
#121 = EDGE_LOOP ( 'NONE', ( #162 ) ) ;
#122 = EDGE_LOOP ( 'NONE', ( #100 ) ) ;
#123 = CC_DESIGN_DATE_AND_TIME_ASSIGNMENT ( #212, #176, ( #56 ) ) ;
#124 = CYLINDRICAL_SURFACE ( 'NONE', #193, 0.3499999999999999223 ) ;
#125 = APPLICATION_CONTEXT ( 'configuration controlled 3d designs of mechanical parts and assemblies' ) ;
#126 = CONICAL_SURFACE ( 'NONE', #81, 1.199999999999992184, 0.7853981633974338461 ) ;
#127 = DIRECTION ( 'NONE',  ( 3.491481338843133355E-15, -1.224646799147353700E-16, 1.000000000000000000 ) ) ;
#128 = DIRECTION ( 'NONE',  ( 3.491481338843133355E-15, -1.224646799147353700E-16, 1.000000000000000000 ) ) ;
#129 = DIRECTION ( 'NONE',  ( -4.275831445896960358E-31, -1.000000000000000000, -1.224646799147353700E-16 ) ) ;
#130 = FACE_BOUND ( 'NONE', #160, .T. ) ;
#131 = EDGE_CURVE ( 'NONE', #97, #97, #234, .T. ) ;
#132 = DIRECTION ( 'NONE',  ( 3.491481338843133355E-15, -1.224646799147353700E-16, 1.000000000000000000 ) ) ;
#133 = VERTEX_POINT ( 'NONE', #135 ) ;
#134 = CARTESIAN_POINT ( 'NONE',  ( 1.316288464743860707E-13, 1.499999999999987566, 37.69999999999998153 ) ) ;
#135 = CARTESIAN_POINT ( 'NONE',  ( 1.955229549752154995E-14, -0.3500000000000005884, 5.600000000000000533 ) ) ;
#136 = CARTESIAN_POINT ( 'NONE',  ( 5.440776761953452336E-16, -0.3499999999999998668, 0.1558300398579875456 ) ) ;
#137 = AXIS2_PLACEMENT_3D ( 'NONE', #182, #224, #144 ) ;
#138 = ADVANCED_FACE ( 'NONE', ( #147 ), #59, .F. ) ;
#139 = PRODUCT_RELATED_PRODUCT_CATEGORY ( 'detail', '', ( #217 ) ) ;
#140 = ORIENTED_EDGE ( 'NONE', *, *, #118, .F. ) ;
#141 = DATE_AND_TIME ( #66, #229 ) ;
#142 = ORIENTED_EDGE ( 'NONE', *, *, #219, .F. ) ;
#143 = FACE_OUTER_BOUND ( 'NONE', #28, .T. ) ;
#144 = DIRECTION ( 'NONE',  ( 0.0000000000000000000, -1.000000000000000000, 0.0000000000000000000 ) ) ;
#145 = AXIS2_PLACEMENT_3D ( 'NONE', #1, #164, #88 ) ;
#146 = CARTESIAN_POINT ( 'NONE',  ( 1.326762908760390170E-13, -4.653657836759943518E-15, 37.99999999999999289 ) ) ;
#147 = FACE_OUTER_BOUND ( 'NONE', #157, .T. ) ;
#148 = CARTESIAN_POINT ( 'NONE',  ( 4.105243198542008659E-14, -1.439925480020385286E-15, 11.75788383248881708 ) ) ;
#149 = LOCAL_TIME ( 11, 34, 24.00000000000000000, #227 ) ;
#150 = AXIS2_PLACEMENT_3D ( 'NONE', #70, #108, #196 ) ;
#151 = DATE_TIME_ROLE ( 'creation_date' ) ;
#152 = DIRECTION ( 'NONE',  ( 0.0000000000000000000, 0.0000000000000000000, 1.000000000000000000 ) ) ;
#153 = CC_DESIGN_SECURITY_CLASSIFICATION ( #56, ( #30 ) ) ;
#154 = APPROVAL_ROLE ( '' ) ;
#155 = CALENDAR_DATE ( 2021, 15, 10 ) ;
#156 = AXIS2_PLACEMENT_3D ( 'NONE', #15, #199, #34 ) ;
#157 = EDGE_LOOP ( 'NONE', ( #25 ) ) ;
#158 = CC_DESIGN_APPROVAL ( #107, ( #30 ) ) ;
#159 = PERSON_AND_ORGANIZATION ( #110, #91 ) ;
#160 = EDGE_LOOP ( 'NONE', ( #29 ) ) ;
#161 = PERSON_AND_ORGANIZATION_ROLE ( 'design_supplier' ) ;
#162 = ORIENTED_EDGE ( 'NONE', *, *, #208, .F. ) ;
#163 = PRODUCT_DEFINITION ( 'UNKNOWN', '', #30, #60 ) ;
#164 = DIRECTION ( 'NONE',  ( 3.491481338843133355E-15, -1.224646799147353700E-16, 1.000000000000000000 ) ) ;
#165 = ADVANCED_FACE ( 'NONE', ( #200 ), #169, .F. ) ;
#166 = AXIS2_PLACEMENT_3D ( 'NONE', #12, #183, #58 ) ;
#167 = DIRECTION ( 'NONE',  ( 3.491481338843133355E-15, -1.224646799147353700E-16, 1.000000000000000000 ) ) ;
#168 = DIRECTION ( 'NONE',  ( -5.502656983963533136E-31, -1.000000000000000000, -1.548860246407864076E-16 ) ) ;
#169 = PLANE ( 'NONE',  #166 ) ;
#170 = CLOSED_SHELL ( 'NONE', ( #37, #32, #52 ) ) ;
#171 = AXIS2_PLACEMENT_3D ( 'NONE', #57, #106, #129 ) ;
#172 = PERSON_AND_ORGANIZATION ( #110, #91 ) ;
#173 = PERSON_AND_ORGANIZATION ( #110, #91 ) ;
#174 = DATE_AND_TIME ( #5, #36 ) ;
#175 = APPROVAL_DATE_TIME ( #114, #26 ) ;
#176 = DATE_TIME_ROLE ( 'classification_date' ) ;
#177 = EDGE_LOOP ( 'NONE', ( #238 ) ) ;
#178 = COORDINATED_UNIVERSAL_TIME_OFFSET ( 1, 0, .AHEAD. ) ;
#179 = AXIS2_PLACEMENT_3D ( 'NONE', #146, #185, #38 ) ;
#180 = PERSON_AND_ORGANIZATION ( #110, #91 ) ;
#181 = CC_DESIGN_APPROVAL ( #26, ( #163 ) ) ;
#182 = CARTESIAN_POINT ( 'NONE',  ( 7.332110811570572157E-15, -2.571758278209445408E-16, 2.099999999999997868 ) ) ;
#183 = DIRECTION ( 'NONE',  ( -3.491481338843133355E-15, 1.224646799147353700E-16, -1.000000000000000000 ) ) ;
#184 = DIRECTION ( 'NONE',  ( 0.0000000000000000000, -1.000000000000000000, 0.0000000000000000000 ) ) ;
#185 = DIRECTION ( 'NONE',  ( -3.491481338843133355E-15, 1.224646799147353700E-16, -1.000000000000000000 ) ) ;
#186 = FACE_BOUND ( 'NONE', #50, .T. ) ;
#187 = PERSON_AND_ORGANIZATION ( #110, #91 ) ;
#188 = LOCAL_TIME ( 11, 34, 24.00000000000000000, #102 ) ;
#189 = VERTEX_POINT ( 'NONE', #82 ) ;
#190 = COORDINATED_UNIVERSAL_TIME_OFFSET ( 1, 0, .AHEAD. ) ;
#191 = VERTEX_POINT ( 'NONE', #111 ) ;
#192 = APPROVAL_DATE_TIME ( #120, #48 ) ;
#193 = AXIS2_PLACEMENT_3D ( 'NONE', #93, #167, #35 ) ;
#194 = PERSON_AND_ORGANIZATION ( #110, #91 ) ;
#195 = EDGE_LOOP ( 'NONE', ( #213 ) ) ;
#196 = DIRECTION ( 'NONE',  ( 0.0000000000000000000, -1.000000000000000000, 0.0000000000000000000 ) ) ;
#197 = AXIS2_PLACEMENT_3D ( 'NONE', #220, #31, #184 ) ;
#198 = FACE_OUTER_BOUND ( 'NONE', #195, .T. ) ;
#199 = DIRECTION ( 'NONE',  ( -3.491481338843133355E-15, 1.224646799147353700E-16, -1.000000000000000000 ) ) ;
#200 = FACE_OUTER_BOUND ( 'NONE', #218, .T. ) ;
#201 = UNCERTAINTY_MEASURE_WITH_UNIT (LENGTH_MEASURE( 1.000000000000000082E-05 ), #23, 'distance_accuracy_value', 'NONE');
#202 = CONICAL_SURFACE ( 'NONE', #19, 1.999999999999992228, 0.2617993877991413587 ) ;
#203 = DIRECTION ( 'NONE',  ( 3.491481338843133355E-15, -1.224646799147353700E-16, 1.000000000000000000 ) ) ;
#204 = APPLICATION_CONTEXT ( 'configuration controlled 3d designs of mechanical parts and assemblies' ) ;
#205 = VERTEX_POINT ( 'NONE', #231 ) ;
#206 = CIRCLE ( 'NONE', #67, 0.3499999999999998668 ) ;
#207 = PERSON_AND_ORGANIZATION_ROLE ( 'creator' ) ;
#208 = EDGE_CURVE ( 'NONE', #133, #133, #20, .T. ) ;
#209 =( NAMED_UNIT ( * ) PLANE_ANGLE_UNIT ( ) SI_UNIT ( $, .RADIAN. ) );
#210 = CIRCLE ( 'NONE', #65, 0.3499999999999999223 ) ;
#211 = ORIENTED_EDGE ( 'NONE', *, *, #219, .T. ) ;
#212 = DATE_AND_TIME ( #155, #188 ) ;
#213 = ORIENTED_EDGE ( 'NONE', *, *, #71, .T. ) ;
#214 = CC_DESIGN_PERSON_AND_ORGANIZATION_ASSIGNMENT ( #194, #161, ( #30 ) ) ;
#215 = PERSON_AND_ORGANIZATION_ROLE ( 'creator' ) ;
#216 = CLOSED_SHELL ( 'NONE', ( #22, #79, #165, #230, #24, #138 ) ) ;
#217 = PRODUCT ( '956662', '956662', '', ( #226 ) ) ;
#218 = EDGE_LOOP ( 'NONE', ( #119 ) ) ;
#219 = EDGE_CURVE ( 'NONE', #205, #205, #222, .T. ) ;
#220 = CARTESIAN_POINT ( 'NONE',  ( 3.453723911029925958E-14, -1.211403276233150645E-15, 9.891858428704310313 ) ) ;
#221 = FACE_OUTER_BOUND ( 'NONE', #122, .T. ) ;
#222 = CIRCLE ( 'NONE', #197, 1.499999999999989786 ) ;
#223 = CARTESIAN_POINT ( 'NONE',  ( 1.326762908760390170E-13, -4.653657836759943518E-15, 37.99999999999999289 ) ) ;
#224 = DIRECTION ( 'NONE',  ( 3.491481338843133355E-15, -1.224646799147353700E-16, 1.000000000000000000 ) ) ;
#225 = DIRECTION ( 'NONE',  ( -3.491481338843133355E-15, 1.224646799147353700E-16, -1.000000000000000000 ) ) ;
#226 = MECHANICAL_CONTEXT ( 'NONE', #125, 'mechanical' ) ;
#227 = COORDINATED_UNIVERSAL_TIME_OFFSET ( 1, 0, .AHEAD. ) ;
#228 = DIRECTION ( 'NONE',  ( 3.491481338843133355E-15, -1.224646799147353700E-16, 1.000000000000000000 ) ) ;
#229 = LOCAL_TIME ( 11, 34, 24.00000000000000000, #232 ) ;
#230 = ADVANCED_FACE ( 'NONE', ( #89, #143 ), #55, .T. ) ;
#231 = CARTESIAN_POINT ( 'NONE',  ( 3.453723911029925958E-14, -1.499999999999991118, 9.891858428704310313 ) ) ;
#232 = COORDINATED_UNIVERSAL_TIME_OFFSET ( 1, 0, .AHEAD. ) ;
#233 = PERSON_AND_ORGANIZATION_ROLE ( 'classification_officer' ) ;
#234 = CIRCLE ( 'NONE', #137, 0.3499999999999999223 ) ;
#235 = CALENDAR_DATE ( 2021, 15, 10 ) ;
#236 = EDGE_LOOP ( 'NONE', ( #9 ) ) ;
#237 = SHAPE_DEFINITION_REPRESENTATION ( #242, #8 ) ;
#238 = ORIENTED_EDGE ( 'NONE', *, *, #240, .T. ) ;
#239 = PERSON_AND_ORGANIZATION ( #110, #91 ) ;
#240 = EDGE_CURVE ( 'NONE', #189, #189, #210, .T. ) ;
#241 = FACE_OUTER_BOUND ( 'NONE', #84, .T. ) ;
#242 = PRODUCT_DEFINITION_SHAPE ( 'NONE', 'NONE',  #163 ) ;
#243 = DIRECTION ( 'NONE',  ( -5.502656983963533136E-31, -1.000000000000000000, -1.548860246407864076E-16 ) ) ;
ENDSEC;
END-ISO-10303-21;
