ISO-10303-21;
HEADER;
FILE_DESCRIPTION (( 'STEP AP203' ),
    '1' );
FILE_NAME ('956661.step',
    '2021-10-15T09:34:23',
    ( '' ),
    ( '' ),
    'SwSTEP 2.0',
    'SolidWorks 2019',
    '' );
FILE_SCHEMA (( 'CONFIG_CONTROL_DESIGN' ));
ENDSEC;

DATA;
#1 = VERTEX_POINT ( 'NONE', #97 ) ;
#2 = EDGE_CURVE ( 'NONE', #175, #175, #62, .T. ) ;
#3 = DIRECTION ( 'NONE',  ( -3.491481338843133355E-15, 1.224646799147353700E-16, -1.000000000000000000 ) ) ;
#4 = FACE_BOUND ( 'NONE', #167, .T. ) ;
#5 = APPROVAL_PERSON_ORGANIZATION ( #105, #168, #165 ) ;
#6 = ADVANCED_FACE ( 'NONE', ( #76, #133 ), #132, .T. ) ;
#7 = APPROVAL_ROLE ( '' ) ;
#8 = DATE_TIME_ROLE ( 'classification_date' ) ;
#9 = DATE_TIME_ROLE ( 'creation_date' ) ;
#10 = LOCAL_TIME ( 11, 34, 23.00000000000000000, #65 ) ;
#11 = APPROVAL_STATUS ( 'not_yet_approved' ) ;
#12 = APPROVAL_DATE_TIME ( #106, #168 ) ;
#13 = CYLINDRICAL_SURFACE ( 'NONE', #207, 1.499999999999989786 ) ;
#14 = AXIS2_PLACEMENT_3D ( 'NONE', #99, #227, #123 ) ;
#15 = ORIENTED_EDGE ( 'NONE', *, *, #140, .F. ) ;
#16 = DIRECTION ( 'NONE',  ( -3.491481338843133355E-15, 1.224646799147353700E-16, -1.000000000000000000 ) ) ;
#17 = ORIENTED_EDGE ( 'NONE', *, *, #102, .T. ) ;
#18 = AXIS2_PLACEMENT_3D ( 'NONE', #222, #191, #172 ) ;
#19 = ORIENTED_EDGE ( 'NONE', *, *, #2, .T. ) ;
#20 =( LENGTH_UNIT ( ) NAMED_UNIT ( * ) SI_UNIT ( .MILLI., .METRE. ) );
#21 = CARTESIAN_POINT ( 'NONE',  ( 1.326762908760390170E-13, -4.653657836759943518E-15, 37.99999999999999289 ) ) ;
#22 = AXIS2_PLACEMENT_3D ( 'NONE', #209, #170, #54 ) ;
#23 = VERTEX_POINT ( 'NONE', #25 ) ;
#24 = DIRECTION ( 'NONE',  ( 0.0000000000000000000, -1.000000000000000000, 0.0000000000000000000 ) ) ;
#25 = CARTESIAN_POINT ( 'NONE',  ( 3.239557332673682298E-14, -1.499999999999990896, 9.278460969082759746 ) ) ;
#26 = ADVANCED_FACE ( 'NONE', ( #150 ), #211, .F. ) ;
#27 = APPLICATION_CONTEXT ( 'configuration controlled 3d designs of mechanical parts and assemblies' ) ;
#28 = CALENDAR_DATE ( 2021, 15, 10 ) ;
#29 = ORIENTED_EDGE ( 'NONE', *, *, #140, .T. ) ;
#30 = PERSON_AND_ORGANIZATION_ROLE ( 'design_supplier' ) ;
#31 = AXIS2_PLACEMENT_3D ( 'NONE', #189, #194, #210 ) ;
#32 = EDGE_LOOP ( 'NONE', ( #70 ) ) ;
#33 = DIRECTION ( 'NONE',  ( 3.491481338843133355E-15, -1.224646799147353700E-16, 1.000000000000000000 ) ) ;
#34 = AXIS2_PLACEMENT_3D ( 'NONE', #169, #153, #56 ) ;
#35 = DIRECTION ( 'NONE',  ( -3.491481338843133355E-15, 1.224646799147353700E-16, -1.000000000000000000 ) ) ;
#36 = CARTESIAN_POINT ( 'NONE',  ( 1.326762908760390170E-13, 8.998558695971025223E-33, 37.99999999999999289 ) ) ;
#37 = DIRECTION ( 'NONE',  ( 0.0000000000000000000, -1.000000000000000000, 0.0000000000000000000 ) ) ;
#38 = APPLICATION_PROTOCOL_DEFINITION ( 'international standard', 'config_control_design', 1994, #197 ) ;
#39 = AXIS2_PLACEMENT_3D ( 'NONE', #36, #35, #115 ) ;
#40 = APPROVAL_PERSON_ORGANIZATION ( #179, #164, #85 ) ;
#41 = CARTESIAN_POINT ( 'NONE',  ( 1.316288464743860707E-13, -4.616918432785521870E-15, 37.69999999999998153 ) ) ;
#42 = PERSON_AND_ORGANIZATION_ROLE ( 'creator' ) ;
#43 = CALENDAR_DATE ( 2021, 15, 10 ) ;
#44 = LOCAL_TIME ( 11, 34, 23.00000000000000000, #89 ) ;
#45 = PERSON_AND_ORGANIZATION ( #190, #113 ) ;
#46 = EDGE_CURVE ( 'NONE', #23, #23, #134, .T. ) ;
#47 = SHAPE_DEFINITION_REPRESENTATION ( #128, #156 ) ;
#48 = EDGE_LOOP ( 'NONE', ( #52 ) ) ;
#49 = COORDINATED_UNIVERSAL_TIME_OFFSET ( 1, 0, .AHEAD. ) ;
#50 = EDGE_CURVE ( 'NONE', #200, #200, #108, .T. ) ;
#51 = ORIENTED_EDGE ( 'NONE', *, *, #224, .F. ) ;
#52 = ORIENTED_EDGE ( 'NONE', *, *, #114, .F. ) ;
#53 = AXIS2_PLACEMENT_3D ( 'NONE', #143, #61, #212 ) ;
#54 = DIRECTION ( 'NONE',  ( 0.0000000000000000000, -1.000000000000000000, 0.0000000000000000000 ) ) ;
#55 = CC_DESIGN_DATE_AND_TIME_ASSIGNMENT ( #66, #8, ( #159 ) ) ;
#56 = DIRECTION ( 'NONE',  ( 0.0000000000000000000, -1.000000000000000000, 0.0000000000000000000 ) ) ;
#57 = CYLINDRICAL_SURFACE ( 'NONE', #58, 0.2999999999999998779 ) ;
#58 = AXIS2_PLACEMENT_3D ( 'NONE', #138, #186, #73 ) ;
#59 = CARTESIAN_POINT ( 'NONE',  ( 4.663522938817314448E-16, -0.2999999999999998779, 0.1335686055925627558 ) ) ;
#60 = DIRECTION ( 'NONE',  ( -4.275831445896960358E-31, -1.000000000000000000, -1.224646799147353700E-16 ) ) ;
#61 = DIRECTION ( 'NONE',  ( 3.491481338843133355E-15, -1.224646799147353947E-16, 1.000000000000000000 ) ) ;
#62 = CIRCLE ( 'NONE', #187, 0.2999999999999998779 ) ;
#63 = DIRECTION ( 'NONE',  ( 0.0000000000000000000, -1.000000000000000000, 0.0000000000000000000 ) ) ;
#64 = CARTESIAN_POINT ( 'NONE',  ( 6.284666409917650295E-15, -0.3000000000000000999, 1.800000000000002931 ) ) ;
#65 = COORDINATED_UNIVERSAL_TIME_OFFSET ( 1, 0, .AHEAD. ) ;
#66 = DATE_AND_TIME ( #107, #44 ) ;
#67 = CIRCLE ( 'NONE', #83, 0.2999999999999998779 ) ;
#68 = APPROVAL ( #11, 'UNSPECIFIED' ) ;
#69 = COORDINATED_UNIVERSAL_TIME_OFFSET ( 1, 0, .AHEAD. ) ;
#70 = ORIENTED_EDGE ( 'NONE', *, *, #50, .T. ) ;
#71 = DATE_AND_TIME ( #28, #188 ) ;
#72 = CONICAL_SURFACE ( 'NONE', #162, 1.199999999999992184, 0.7853981633974338461 ) ;
#73 = DIRECTION ( 'NONE',  ( 0.0000000000000000000, -1.000000000000000000, 0.0000000000000000000 ) ) ;
#74 = EDGE_LOOP ( 'NONE', ( #203 ) ) ;
#75 = DIRECTION ( 'NONE',  ( 4.275831445896961234E-31, 1.000000000000000000, 1.224646799147353700E-16 ) ) ;
#76 = FACE_BOUND ( 'NONE', #90, .T. ) ;
#77 = FACE_OUTER_BOUND ( 'NONE', #223, .T. ) ;
#78 = CC_DESIGN_PERSON_AND_ORGANIZATION_ASSIGNMENT ( #86, #30, ( #221 ) ) ;
#79 = VERTEX_POINT ( 'NONE', #215 ) ;
#80 = VERTEX_POINT ( 'NONE', #59 ) ;
#81 = PERSON_AND_ORGANIZATION_ROLE ( 'design_owner' ) ;
#82 = UNCERTAINTY_MEASURE_WITH_UNIT (LENGTH_MEASURE( 1.000000000000000082E-05 ), #20, 'distance_accuracy_value', 'NONE');
#83 = AXIS2_PLACEMENT_3D ( 'NONE', #141, #177, #24 ) ;
#84 = ADVANCED_FACE ( 'NONE', ( #110, #116 ), #13, .T. ) ;
#85 = APPROVAL_ROLE ( '' ) ;
#86 = PERSON_AND_ORGANIZATION ( #190, #113 ) ;
#87 = CC_DESIGN_APPROVAL ( #68, ( #196 ) ) ;
#88 = APPROVAL_STATUS ( 'not_yet_approved' ) ;
#89 = COORDINATED_UNIVERSAL_TIME_OFFSET ( 1, 0, .AHEAD. ) ;
#90 = EDGE_LOOP ( 'NONE', ( #17 ) ) ;
#91 = ORIENTED_EDGE ( 'NONE', *, *, #102, .F. ) ;
#92 = EDGE_LOOP ( 'NONE', ( #236 ) ) ;
#93 = CARTESIAN_POINT ( 'NONE',  ( 6.284666409917650295E-15, -2.204364238465235576E-16, 1.800000000000002931 ) ) ;
#94 = DIRECTION ( 'NONE',  ( 3.491481338843133355E-15, -1.224646799147353947E-16, 1.000000000000000000 ) ) ;
#95 = ADVANCED_FACE ( 'NONE', ( #151 ), #112, .T. ) ;
#96 = MANIFOLD_SOLID_BREP ( 'Corps-Déplacer/Copier1[1]', #192 ) ;
#97 = CARTESIAN_POINT ( 'NONE',  ( 1.675911042644703379E-14, -0.3000000000000004885, 4.799999999999998934 ) ) ;
#98 = PRODUCT ( '956661', '956661', '', ( #213 ) ) ;
#99 = CARTESIAN_POINT ( 'NONE',  ( 1.326762908760390170E-13, -4.653657836759943518E-15, 37.99999999999999289 ) ) ;
#100 = AXIS2_PLACEMENT_3D ( 'NONE', #206, #33, #60 ) ;
#101 = PERSON_AND_ORGANIZATION ( #190, #113 ) ;
#102 = EDGE_CURVE ( 'NONE', #1, #1, #240, .T. ) ;
#103 = CYLINDRICAL_SURFACE ( 'NONE', #214, 0.2999999999999998779 ) ;
#104 = MANIFOLD_SOLID_BREP ( 'Corps-Déplacer/Copier1[2]', #111 ) ;
#105 = PERSON_AND_ORGANIZATION ( #190, #113 ) ;
#106 = DATE_AND_TIME ( #202, #154 ) ;
#107 = CALENDAR_DATE ( 2021, 15, 10 ) ;
#108 = CIRCLE ( 'NONE', #142, 1.499999999999992006 ) ;
#109 = CC_DESIGN_PERSON_AND_ORGANIZATION_ASSIGNMENT ( #101, #81, ( #98 ) ) ;
#110 = FACE_OUTER_BOUND ( 'NONE', #32, .T. ) ;
#111 = CLOSED_SHELL ( 'NONE', ( #95, #183, #144 ) ) ;
#112 = PLANE ( 'NONE',  #18 ) ;
#113 = ORGANIZATION ( 'UNSPECIFIED', 'UNSPECIFIED', '' ) ;
#114 = EDGE_CURVE ( 'NONE', #80, #80, #235, .T. ) ;
#115 = DIRECTION ( 'NONE',  ( 4.275831445896960358E-31, 1.000000000000000000, 1.224646799147353700E-16 ) ) ;
#116 = FACE_OUTER_BOUND ( 'NONE', #201, .T. ) ;
#117 = CARTESIAN_POINT ( 'NONE',  ( 4.663522938817315434E-16, -1.635743653054969281E-17, 0.1335686055925627835 ) ) ;
#118 =( GEOMETRIC_REPRESENTATION_CONTEXT ( 3 ) GLOBAL_UNCERTAINTY_ASSIGNED_CONTEXT ( ( #82 ) ) GLOBAL_UNIT_ASSIGNED_CONTEXT ( ( #20, #145, #139 ) ) REPRESENTATION_CONTEXT ( 'NONE', 'WORKASPACE' ) );
#119 = FACE_OUTER_BOUND ( 'NONE', #135, .T. ) ;
#120 = DIRECTION ( 'NONE',  ( 0.0000000000000000000, 0.0000000000000000000, 1.000000000000000000 ) ) ;
#121 = CONICAL_SURFACE ( 'NONE', #53, 0.2999999999999998779, 1.151917306316251999 ) ;
#122 = DESIGN_CONTEXT ( 'detailed design', #27, 'design' ) ;
#123 = DIRECTION ( 'NONE',  ( 0.0000000000000000000, 1.000000000000000000, 0.0000000000000000000 ) ) ;
#124 = PERSON_AND_ORGANIZATION_ROLE ( 'classification_officer' ) ;
#125 = PERSON_AND_ORGANIZATION ( #190, #113 ) ;
#126 = ADVANCED_FACE ( 'NONE', ( #241, #77 ), #57, .T. ) ;
#127 = AXIS2_PLACEMENT_3D ( 'NONE', #117, #94, #174 ) ;
#128 = PRODUCT_DEFINITION_SHAPE ( 'NONE', 'NONE',  #196 ) ;
#129 = ORIENTED_EDGE ( 'NONE', *, *, #46, .F. ) ;
#130 = EDGE_LOOP ( 'NONE', ( #15 ) ) ;
#131 = ADVANCED_FACE ( 'NONE', ( #149 ), #219, .F. ) ;
#132 = CONICAL_SURFACE ( 'NONE', #22, 1.999999999999992228, 0.2617993877991413587 ) ;
#133 = FACE_OUTER_BOUND ( 'NONE', #92, .T. ) ;
#134 = CIRCLE ( 'NONE', #34, 1.499999999999989786 ) ;
#135 = EDGE_LOOP ( 'NONE', ( #148 ) ) ;
#136 = CC_DESIGN_PERSON_AND_ORGANIZATION_ASSIGNMENT ( #166, #163, ( #221 ) ) ;
#137 = EDGE_LOOP ( 'NONE', ( #19 ) ) ;
#138 = CARTESIAN_POINT ( 'NONE',  ( 1.316288464743860707E-13, -4.616918432785521870E-15, 37.69999999999998153 ) ) ;
#139 =( NAMED_UNIT ( * ) SI_UNIT ( $, .STERADIAN. ) SOLID_ANGLE_UNIT ( ) );
#140 = EDGE_CURVE ( 'NONE', #79, #79, #232, .T. ) ;
#141 = CARTESIAN_POINT ( 'NONE',  ( 6.284666409917650295E-15, -2.204364238465235576E-16, 1.800000000000002931 ) ) ;
#142 = AXIS2_PLACEMENT_3D ( 'NONE', #220, #16, #238 ) ;
#143 = CARTESIAN_POINT ( 'NONE',  ( 4.663522938817315434E-16, -1.635743653054969281E-17, 0.1335686055925627835 ) ) ;
#144 = ADVANCED_FACE ( 'NONE', ( #243, #158 ), #103, .T. ) ;
#145 =( NAMED_UNIT ( * ) PLANE_ANGLE_UNIT ( ) SI_UNIT ( $, .RADIAN. ) );
#146 = EDGE_LOOP ( 'NONE', ( #230 ) ) ;
#147 = COORDINATED_UNIVERSAL_TIME_OFFSET ( 1, 0, .AHEAD. ) ;
#148 = ORIENTED_EDGE ( 'NONE', *, *, #50, .F. ) ;
#149 = FACE_OUTER_BOUND ( 'NONE', #205, .T. ) ;
#150 = FACE_OUTER_BOUND ( 'NONE', #130, .T. ) ;
#151 = FACE_OUTER_BOUND ( 'NONE', #137, .T. ) ;
#152 = AXIS2_PLACEMENT_3D ( 'NONE', #226, #120, #199 ) ;
#153 = DIRECTION ( 'NONE',  ( -3.491481338843133355E-15, 1.224646799147353947E-16, -1.000000000000000000 ) ) ;
#154 = LOCAL_TIME ( 11, 34, 23.00000000000000000, #49 ) ;
#155 = CARTESIAN_POINT ( 'NONE',  ( 6.284666409917650295E-15, -0.3000000000000000999, 1.800000000000002931 ) ) ;
#156 = ADVANCED_BREP_SHAPE_REPRESENTATION ( '956661', ( #96, #104, #152 ), #118 ) ;
#157 = CC_DESIGN_PERSON_AND_ORGANIZATION_ASSIGNMENT ( #45, #124, ( #159 ) ) ;
#158 = FACE_OUTER_BOUND ( 'NONE', #74, .T. ) ;
#159 = SECURITY_CLASSIFICATION ( '', '', #233 ) ;
#160 = DIRECTION ( 'NONE',  ( 0.0000000000000000000, 1.000000000000000000, 0.0000000000000000000 ) ) ;
#161 = DATE_AND_TIME ( #43, #10 ) ;
#162 = AXIS2_PLACEMENT_3D ( 'NONE', #21, #3, #160 ) ;
#163 = PERSON_AND_ORGANIZATION_ROLE ( 'creator' ) ;
#164 = APPROVAL ( #217, 'UNSPECIFIED' ) ;
#165 = APPROVAL_ROLE ( '' ) ;
#166 = PERSON_AND_ORGANIZATION ( #190, #113 ) ;
#167 = EDGE_LOOP ( 'NONE', ( #29 ) ) ;
#168 = APPROVAL ( #88, 'UNSPECIFIED' ) ;
#169 = CARTESIAN_POINT ( 'NONE',  ( 3.239557332673682298E-14, -1.136283752680085024E-15, 9.278460969082759746 ) ) ;
#170 = DIRECTION ( 'NONE',  ( 3.491481338843133355E-15, -1.224646799147353947E-16, 1.000000000000000000 ) ) ;
#171 = CARTESIAN_POINT ( 'NONE',  ( 0.0000000000000000000, 0.0000000000000000000, 0.0000000000000000000 ) ) ;
#172 = DIRECTION ( 'NONE',  ( -4.275831445896960358E-31, -1.000000000000000000, -1.224646799147353700E-16 ) ) ;
#173 = PRODUCT_RELATED_PRODUCT_CATEGORY ( 'detail', '', ( #98 ) ) ;
#174 = DIRECTION ( 'NONE',  ( -3.209883240645394548E-31, -1.000000000000000000, -9.035018104045874392E-17 ) ) ;
#175 = VERTEX_POINT ( 'NONE', #64 ) ;
#176 = FACE_OUTER_BOUND ( 'NONE', #48, .T. ) ;
#177 = DIRECTION ( 'NONE',  ( 3.491481338843133355E-15, -1.224646799147353700E-16, 1.000000000000000000 ) ) ;
#178 = CARTESIAN_POINT ( 'NONE',  ( 1.316288464743860707E-13, 1.499999999999987566, 37.69999999999998153 ) ) ;
#179 = PERSON_AND_ORGANIZATION ( #190, #113 ) ;
#180 = EDGE_LOOP ( 'NONE', ( #91 ) ) ;
#181 = APPROVAL_DATE_TIME ( #161, #68 ) ;
#182 = ORIENTED_EDGE ( 'NONE', *, *, #224, .T. ) ;
#183 = ADVANCED_FACE ( 'NONE', ( #176 ), #121, .T. ) ;
#184 = CC_DESIGN_SECURITY_CLASSIFICATION ( #159, ( #221 ) ) ;
#185 = CALENDAR_DATE ( 2021, 15, 10 ) ;
#186 = DIRECTION ( 'NONE',  ( 3.491481338843133355E-15, -1.224646799147353947E-16, 1.000000000000000000 ) ) ;
#187 = AXIS2_PLACEMENT_3D ( 'NONE', #93, #225, #37 ) ;
#188 = LOCAL_TIME ( 11, 34, 23.00000000000000000, #69 ) ;
#189 = CARTESIAN_POINT ( 'NONE',  ( 1.675911042644703379E-14, -5.878304635907287309E-16, 4.799999999999998934 ) ) ;
#190 = PERSON ( 'UNSPECIFIED', 'UNSPECIFIED', 'UNSPECIFIED', ('UNSPECIFIED'), ('UNSPECIFIED'), ('UNSPECIFIED') ) ;
#191 = DIRECTION ( 'NONE',  ( 3.491481338843133355E-15, -1.224646799147353700E-16, 1.000000000000000000 ) ) ;
#192 = CLOSED_SHELL ( 'NONE', ( #84, #229, #26, #126, #6, #131 ) ) ;
#193 = CC_DESIGN_APPROVAL ( #168, ( #221 ) ) ;
#194 = DIRECTION ( 'NONE',  ( 3.491481338843133355E-15, -1.224646799147353947E-16, 1.000000000000000000 ) ) ;
#195 = VERTEX_POINT ( 'NONE', #155 ) ;
#196 = PRODUCT_DEFINITION ( 'UNKNOWN', '', #221, #122 ) ;
#197 = APPLICATION_CONTEXT ( 'configuration controlled 3d designs of mechanical parts and assemblies' ) ;
#198 = DIRECTION ( 'NONE',  ( 3.491481338843133355E-15, -1.224646799147353947E-16, 1.000000000000000000 ) ) ;
#199 = DIRECTION ( 'NONE',  ( 1.000000000000000000, 0.0000000000000000000, 0.0000000000000000000 ) ) ;
#200 = VERTEX_POINT ( 'NONE', #178 ) ;
#201 = EDGE_LOOP ( 'NONE', ( #129 ) ) ;
#202 = CALENDAR_DATE ( 2021, 15, 10 ) ;
#203 = ORIENTED_EDGE ( 'NONE', *, *, #114, .T. ) ;
#204 = APPROVAL_PERSON_ORGANIZATION ( #125, #68, #7 ) ;
#205 = EDGE_LOOP ( 'NONE', ( #51 ) ) ;
#206 = CARTESIAN_POINT ( 'NONE',  ( 6.284666409917640040E-15, 1.124819836996384585E-32, 1.800000000000000044 ) ) ;
#207 = AXIS2_PLACEMENT_3D ( 'NONE', #171, #239, #75 ) ;
#208 = CC_DESIGN_DATE_AND_TIME_ASSIGNMENT ( #231, #9, ( #196 ) ) ;
#209 = CARTESIAN_POINT ( 'NONE',  ( 3.891076620185766261E-14, -1.364805956467319468E-15, 11.14448637286726651 ) ) ;
#210 = DIRECTION ( 'NONE',  ( 0.0000000000000000000, -1.000000000000000000, 0.0000000000000000000 ) ) ;
#211 = PLANE ( 'NONE',  #39 ) ;
#212 = DIRECTION ( 'NONE',  ( -3.209883240645394548E-31, -1.000000000000000000, -9.035018104045874392E-17 ) ) ;
#213 = MECHANICAL_CONTEXT ( 'NONE', #197, 'mechanical' ) ;
#214 = AXIS2_PLACEMENT_3D ( 'NONE', #41, #198, #63 ) ;
#215 = CARTESIAN_POINT ( 'NONE',  ( 1.326762908760390170E-13, 1.199999999999987521, 37.99999999999999289 ) ) ;
#216 = LOCAL_TIME ( 11, 34, 23.00000000000000000, #147 ) ;
#217 = APPROVAL_STATUS ( 'not_yet_approved' ) ;
#218 = APPROVAL_DATE_TIME ( #71, #164 ) ;
#219 = PLANE ( 'NONE',  #100 ) ;
#220 = CARTESIAN_POINT ( 'NONE',  ( 1.316288464743860707E-13, -4.616918432785521870E-15, 37.69999999999998153 ) ) ;
#221 = PRODUCT_DEFINITION_FORMATION_WITH_SPECIFIED_SOURCE ( 'ANY', '', #98, .NOT_KNOWN. ) ;
#222 = CARTESIAN_POINT ( 'NONE',  ( 6.284666409917640040E-15, 1.124819836996384585E-32, 1.800000000000000044 ) ) ;
#223 = EDGE_LOOP ( 'NONE', ( #182 ) ) ;
#224 = EDGE_CURVE ( 'NONE', #195, #195, #67, .T. ) ;
#225 = DIRECTION ( 'NONE',  ( 3.491481338843133355E-15, -1.224646799147353700E-16, 1.000000000000000000 ) ) ;
#226 = CARTESIAN_POINT ( 'NONE',  ( 0.0000000000000000000, 0.0000000000000000000, 0.0000000000000000000 ) ) ;
#227 = DIRECTION ( 'NONE',  ( -3.491481338843133355E-15, 1.224646799147353700E-16, -1.000000000000000000 ) ) ;
#228 = APPLICATION_PROTOCOL_DEFINITION ( 'international standard', 'config_control_design', 1994, #27 ) ;
#229 = ADVANCED_FACE ( 'NONE', ( #119, #4 ), #72, .T. ) ;
#230 = ORIENTED_EDGE ( 'NONE', *, *, #2, .F. ) ;
#231 = DATE_AND_TIME ( #185, #216 ) ;
#232 = CIRCLE ( 'NONE', #14, 1.199999999999992184 ) ;
#233 = SECURITY_CLASSIFICATION_LEVEL ( 'unclassified' ) ;
#234 = PERSON_AND_ORGANIZATION ( #190, #113 ) ;
#235 = CIRCLE ( 'NONE', #127, 0.2999999999999998779 ) ;
#236 = ORIENTED_EDGE ( 'NONE', *, *, #46, .T. ) ;
#237 = CC_DESIGN_PERSON_AND_ORGANIZATION_ASSIGNMENT ( #234, #42, ( #196 ) ) ;
#238 = DIRECTION ( 'NONE',  ( 0.0000000000000000000, 1.000000000000000000, 0.0000000000000000000 ) ) ;
#239 = DIRECTION ( 'NONE',  ( -3.491481338843133355E-15, 1.224646799147353700E-16, -1.000000000000000000 ) ) ;
#240 = CIRCLE ( 'NONE', #31, 0.2999999999999998779 ) ;
#241 = FACE_OUTER_BOUND ( 'NONE', #180, .T. ) ;
#242 = CC_DESIGN_APPROVAL ( #164, ( #159 ) ) ;
#243 = FACE_OUTER_BOUND ( 'NONE', #146, .T. ) ;
ENDSEC;
END-ISO-10303-21;
