ISO-10303-21;
HEADER;
FILE_DESCRIPTION (( 'STEP AP203' ),
    '1' );
FILE_NAME ('956660.step',
    '2021-10-15T09:34:23',
    ( '' ),
    ( '' ),
    'SwSTEP 2.0',
    'SolidWorks 2019',
    '' );
FILE_SCHEMA (( 'CONFIG_CONTROL_DESIGN' ));
ENDSEC;

DATA;
#1 = VERTEX_POINT ( 'NONE', #78 ) ;
#2 = CARTESIAN_POINT ( 'NONE',  ( 1.316288464743860707E-13, -4.616918432785521870E-15, 37.69999999999998153 ) ) ;
#3 = VERTEX_POINT ( 'NONE', #223 ) ;
#4 = CONICAL_SURFACE ( 'NONE', #120, 0.2499999999999998890, 1.151917306316244227 ) ;
#5 = EDGE_LOOP ( 'NONE', ( #178 ) ) ;
#6 = PERSON_AND_ORGANIZATION_ROLE ( 'design_supplier' ) ;
#7 = APPROVAL_ROLE ( '' ) ;
#8 = DATE_AND_TIME ( #27, #90 ) ;
#9 = ADVANCED_BREP_SHAPE_REPRESENTATION ( '956660', ( #18, #179, #86 ), #213 ) ;
#10 = APPROVAL_STATUS ( 'not_yet_approved' ) ;
#11 = EDGE_LOOP ( 'NONE', ( #50 ) ) ;
#12 = SECURITY_CLASSIFICATION ( '', '', #171 ) ;
#13 = DIRECTION ( 'NONE',  ( -3.491481338843133355E-15, 1.224646799147353700E-16, -1.000000000000000000 ) ) ;
#14 = EDGE_LOOP ( 'NONE', ( #237 ) ) ;
#15 = EDGE_LOOP ( 'NONE', ( #201 ) ) ;
#16 = ORGANIZATION ( 'UNSPECIFIED', 'UNSPECIFIED', '' ) ;
#17 = DIRECTION ( 'NONE',  ( 3.491481338843133355E-15, -1.224646799147353700E-16, 1.000000000000000000 ) ) ;
#18 = MANIFOLD_SOLID_BREP ( 'Corps-Déplacer/Copier1[1]', #103 ) ;
#19 = VERTEX_POINT ( 'NONE', #205 ) ;
#20 =( LENGTH_UNIT ( ) NAMED_UNIT ( * ) SI_UNIT ( .MILLI., .METRE. ) );
#21 = AXIS2_PLACEMENT_3D ( 'NONE', #165, #70, #52 ) ;
#22 = CARTESIAN_POINT ( 'NONE',  ( 1.396592535537254604E-14, -4.898587196589424662E-16, 4.000000000000003553 ) ) ;
#23 = DIRECTION ( 'NONE',  ( 0.0000000000000000000, -1.000000000000000000, 0.0000000000000000000 ) ) ;
#24 = PERSON_AND_ORGANIZATION ( #136, #16 ) ;
#25 = CIRCLE ( 'NONE', #112, 0.2499999999999998890 ) ;
#26 = APPLICATION_CONTEXT ( 'configuration controlled 3d designs of mechanical parts and assemblies' ) ;
#27 = CALENDAR_DATE ( 2021, 15, 10 ) ;
#28 = ADVANCED_FACE ( 'NONE', ( #121 ), #55, .T. ) ;
#29 = PERSON_AND_ORGANIZATION ( #136, #16 ) ;
#30 = PERSON_AND_ORGANIZATION ( #136, #16 ) ;
#31 = LOCAL_TIME ( 11, 34, 23.00000000000000000, #115 ) ;
#32 = PERSON_AND_ORGANIZATION_ROLE ( 'creator' ) ;
#33 = FACE_OUTER_BOUND ( 'NONE', #181, .T. ) ;
#34 = DIRECTION ( 'NONE',  ( 4.275831445896960358E-31, 1.000000000000000000, 1.224646799147353700E-16 ) ) ;
#35 = CYLINDRICAL_SURFACE ( 'NONE', #242, 1.499999999999989786 ) ;
#36 = EDGE_CURVE ( 'NONE', #1, #1, #122, .T. ) ;
#37 = ORIENTED_EDGE ( 'NONE', *, *, #149, .T. ) ;
#38 = CIRCLE ( 'NONE', #211, 0.2499999999999998890 ) ;
#39 = CC_DESIGN_DATE_AND_TIME_ASSIGNMENT ( #227, #81, ( #12 ) ) ;
#40 = CARTESIAN_POINT ( 'NONE',  ( 1.326762908760390170E-13, -4.653657836759943518E-15, 37.99999999999999289 ) ) ;
#41 = CARTESIAN_POINT ( 'NONE',  ( 1.316288464743860707E-13, -4.616918432785521870E-15, 37.69999999999998153 ) ) ;
#42 = AXIS2_PLACEMENT_3D ( 'NONE', #102, #51, #180 ) ;
#43 = LOCAL_TIME ( 11, 34, 23.00000000000000000, #174 ) ;
#44 = DIRECTION ( 'NONE',  ( -4.275831445896960358E-31, -1.000000000000000000, -1.224646799147353700E-16 ) ) ;
#45 = DIRECTION ( 'NONE',  ( 0.0000000000000000000, 1.000000000000000000, 0.0000000000000000000 ) ) ;
#46 = CALENDAR_DATE ( 2021, 15, 10 ) ;
#47 = PERSON_AND_ORGANIZATION_ROLE ( 'design_owner' ) ;
#48 = COORDINATED_UNIVERSAL_TIME_OFFSET ( 1, 0, .AHEAD. ) ;
#49 = AXIS2_PLACEMENT_3D ( 'NONE', #22, #222, #185 ) ;
#50 = ORIENTED_EDGE ( 'NONE', *, *, #234, .T. ) ;
#51 = DIRECTION ( 'NONE',  ( 3.491481338843133355E-15, -1.224646799147353700E-16, 1.000000000000000000 ) ) ;
#52 = DIRECTION ( 'NONE',  ( 0.0000000000000000000, -1.000000000000000000, 0.0000000000000000000 ) ) ;
#53 = ADVANCED_FACE ( 'NONE', ( #123 ), #107, .F. ) ;
#54 = CARTESIAN_POINT ( 'NONE',  ( 3.886269115681177054E-16, -1.363119710879243784E-17, 0.1113071713271379659 ) ) ;
#55 = PLANE ( 'NONE',  #42 ) ;
#56 = AXIS2_PLACEMENT_3D ( 'NONE', #225, #167, #45 ) ;
#57 = PRODUCT_DEFINITION_SHAPE ( 'NONE', 'NONE',  #62 ) ;
#58 = CARTESIAN_POINT ( 'NONE',  ( 3.886269115681176068E-16, -0.2499999999999998890, 0.1113071713271379382 ) ) ;
#59 = DIRECTION ( 'NONE',  ( 0.0000000000000000000, -1.000000000000000000, 0.0000000000000000000 ) ) ;
#60 = FACE_BOUND ( 'NONE', #5, .T. ) ;
#61 = DIRECTION ( 'NONE',  ( -3.491481338843133355E-15, 1.224646799147353700E-16, -1.000000000000000000 ) ) ;
#62 = PRODUCT_DEFINITION ( 'UNKNOWN', '', #208, #113 ) ;
#63 = FACE_OUTER_BOUND ( 'NONE', #214, .T. ) ;
#64 = PERSON_AND_ORGANIZATION ( #136, #16 ) ;
#65 = DIRECTION ( 'NONE',  ( 0.0000000000000000000, 0.0000000000000000000, 1.000000000000000000 ) ) ;
#66 = CIRCLE ( 'NONE', #49, 0.2499999999999998890 ) ;
#67 = EDGE_LOOP ( 'NONE', ( #218 ) ) ;
#68 = ORIENTED_EDGE ( 'NONE', *, *, #36, .F. ) ;
#69 = EDGE_CURVE ( 'NONE', #187, #187, #38, .T. ) ;
#70 = DIRECTION ( 'NONE',  ( 3.491481338843133355E-15, -1.224646799147353700E-16, 1.000000000000000000 ) ) ;
#71 = AXIS2_PLACEMENT_3D ( 'NONE', #106, #17, #91 ) ;
#72 = EDGE_LOOP ( 'NONE', ( #68 ) ) ;
#73 = DIRECTION ( 'NONE',  ( 0.0000000000000000000, -1.000000000000000000, 0.0000000000000000000 ) ) ;
#74 = VERTEX_POINT ( 'NONE', #76 ) ;
#75 = CC_DESIGN_APPROVAL ( #239, ( #208 ) ) ;
#76 = CARTESIAN_POINT ( 'NONE',  ( 1.396592535537254604E-14, -0.2500000000000003886, 4.000000000000003553 ) ) ;
#77 = CARTESIAN_POINT ( 'NONE',  ( 3.025390754317441162E-14, -1.061164229127021178E-15, 8.665063509461210955 ) ) ;
#78 = CARTESIAN_POINT ( 'NONE',  ( 5.237222008264704766E-15, -0.2500000000000000555, 1.500000000000001332 ) ) ;
#79 = ADVANCED_FACE ( 'NONE', ( #33 ), #4, .T. ) ;
#80 = APPROVAL_ROLE ( '' ) ;
#81 = DATE_TIME_ROLE ( 'classification_date' ) ;
#82 = APPROVAL_DATE_TIME ( #8, #153 ) ;
#83 = CC_DESIGN_DATE_AND_TIME_ASSIGNMENT ( #229, #191, ( #62 ) ) ;
#84 = SHAPE_DEFINITION_REPRESENTATION ( #57, #9 ) ;
#85 = ORIENTED_EDGE ( 'NONE', *, *, #69, .F. ) ;
#86 = AXIS2_PLACEMENT_3D ( 'NONE', #159, #65, #210 ) ;
#87 = DIRECTION ( 'NONE',  ( -3.491481338843133355E-15, 1.224646799147353700E-16, -1.000000000000000000 ) ) ;
#88 = ORIENTED_EDGE ( 'NONE', *, *, #188, .F. ) ;
#89 = ORIENTED_EDGE ( 'NONE', *, *, #69, .T. ) ;
#90 = LOCAL_TIME ( 11, 34, 23.00000000000000000, #193 ) ;
#91 = DIRECTION ( 'NONE',  ( 0.0000000000000000000, -1.000000000000000000, 0.0000000000000000000 ) ) ;
#92 = APPLICATION_PROTOCOL_DEFINITION ( 'international standard', 'config_control_design', 1994, #26 ) ;
#93 = AXIS2_PLACEMENT_3D ( 'NONE', #154, #206, #23 ) ;
#94 = CARTESIAN_POINT ( 'NONE',  ( 3.025390754317441162E-14, -1.499999999999990896, 8.665063509461210955 ) ) ;
#95 = FACE_OUTER_BOUND ( 'NONE', #14, .T. ) ;
#96 = VERTEX_POINT ( 'NONE', #94 ) ;
#97 = PERSON_AND_ORGANIZATION ( #136, #16 ) ;
#98 = APPROVAL_STATUS ( 'not_yet_approved' ) ;
#99 = COORDINATED_UNIVERSAL_TIME_OFFSET ( 1, 0, .AHEAD. ) ;
#100 = CIRCLE ( 'NONE', #203, 1.499999999999989786 ) ;
#101 = PERSON_AND_ORGANIZATION_ROLE ( 'classification_officer' ) ;
#102 = CARTESIAN_POINT ( 'NONE',  ( 5.237222008264700033E-15, 1.124819836996384585E-32, 1.500000000000000000 ) ) ;
#103 = CLOSED_SHELL ( 'NONE', ( #105, #184, #53, #215, #231, #173 ) ) ;
#104 = DIRECTION ( 'NONE',  ( -3.851859888774473458E-31, -1.000000000000000000, -1.084202172485504927E-16 ) ) ;
#105 = ADVANCED_FACE ( 'NONE', ( #142, #220 ), #35, .T. ) ;
#106 = CARTESIAN_POINT ( 'NONE',  ( 1.316288464743860707E-13, -4.616918432785521870E-15, 37.69999999999998153 ) ) ;
#107 = PLANE ( 'NONE',  #141 ) ;
#108 = DIRECTION ( 'NONE',  ( 3.491481338843133355E-15, -1.224646799147353700E-16, 1.000000000000000000 ) ) ;
#109 = APPROVAL_PERSON_ORGANIZATION ( #64, #233, #80 ) ;
#110 = CARTESIAN_POINT ( 'NONE',  ( 1.326762908760390170E-13, 1.199999999999987521, 37.99999999999999289 ) ) ;
#111 = DIRECTION ( 'NONE',  ( 0.0000000000000000000, 1.000000000000000000, 0.0000000000000000000 ) ) ;
#112 = AXIS2_PLACEMENT_3D ( 'NONE', #240, #148, #73 ) ;
#113 = DESIGN_CONTEXT ( 'detailed design', #198, 'design' ) ;
#114 = DIRECTION ( 'NONE',  ( -3.491481338843133355E-15, 1.224646799147353700E-16, -1.000000000000000000 ) ) ;
#115 = COORDINATED_UNIVERSAL_TIME_OFFSET ( 1, 0, .AHEAD. ) ;
#116 = CIRCLE ( 'NONE', #128, 1.499999999999992006 ) ;
#117 = CALENDAR_DATE ( 2021, 15, 10 ) ;
#118 = PERSON_AND_ORGANIZATION ( #136, #16 ) ;
#119 = DATE_AND_TIME ( #117, #133 ) ;
#120 = AXIS2_PLACEMENT_3D ( 'NONE', #54, #183, #104 ) ;
#121 = FACE_OUTER_BOUND ( 'NONE', #202, .T. ) ;
#122 = CIRCLE ( 'NONE', #21, 0.2499999999999998890 ) ;
#123 = FACE_OUTER_BOUND ( 'NONE', #235, .T. ) ;
#124 = EDGE_LOOP ( 'NONE', ( #89 ) ) ;
#125 = CC_DESIGN_PERSON_AND_ORGANIZATION_ASSIGNMENT ( #97, #139, ( #62 ) ) ;
#126 = EDGE_LOOP ( 'NONE', ( #199 ) ) ;
#127 = CARTESIAN_POINT ( 'NONE',  ( 0.0000000000000000000, 0.0000000000000000000, 0.0000000000000000000 ) ) ;
#128 = AXIS2_PLACEMENT_3D ( 'NONE', #41, #114, #168 ) ;
#129 = FACE_OUTER_BOUND ( 'NONE', #72, .T. ) ;
#130 = FACE_OUTER_BOUND ( 'NONE', #126, .T. ) ;
#131 = ADVANCED_FACE ( 'NONE', ( #164, #236 ), #162, .T. ) ;
#132 = CYLINDRICAL_SURFACE ( 'NONE', #135, 0.2499999999999998890 ) ;
#133 = LOCAL_TIME ( 11, 34, 23.00000000000000000, #48 ) ;
#134 = DIRECTION ( 'NONE',  ( 3.491481338843133355E-15, -1.224646799147353700E-16, 1.000000000000000000 ) ) ;
#135 = AXIS2_PLACEMENT_3D ( 'NONE', #2, #134, #207 ) ;
#136 = PERSON ( 'UNSPECIFIED', 'UNSPECIFIED', 'UNSPECIFIED', ('UNSPECIFIED'), ('UNSPECIFIED'), ('UNSPECIFIED') ) ;
#137 = DATE_AND_TIME ( #177, #31 ) ;
#138 = EDGE_CURVE ( 'NONE', #19, #19, #25, .T. ) ;
#139 = PERSON_AND_ORGANIZATION_ROLE ( 'creator' ) ;
#140 = CC_DESIGN_PERSON_AND_ORGANIZATION_ASSIGNMENT ( #176, #101, ( #12 ) ) ;
#141 = AXIS2_PLACEMENT_3D ( 'NONE', #146, #13, #34 ) ;
#142 = FACE_OUTER_BOUND ( 'NONE', #204, .T. ) ;
#143 = CC_DESIGN_PERSON_AND_ORGANIZATION_ASSIGNMENT ( #30, #6, ( #208 ) ) ;
#144 = ORIENTED_EDGE ( 'NONE', *, *, #138, .T. ) ;
#145 = DIRECTION ( 'NONE',  ( -3.851859888774473458E-31, -1.000000000000000000, -1.084202172485504927E-16 ) ) ;
#146 = CARTESIAN_POINT ( 'NONE',  ( 1.326762908760390170E-13, 8.998558695971025223E-33, 37.99999999999999289 ) ) ;
#147 = CC_DESIGN_PERSON_AND_ORGANIZATION_ASSIGNMENT ( #24, #47, ( #160 ) ) ;
#148 = DIRECTION ( 'NONE',  ( 3.491481338843133355E-15, -1.224646799147353700E-16, 1.000000000000000000 ) ) ;
#149 = EDGE_CURVE ( 'NONE', #96, #96, #100, .T. ) ;
#150 = CONICAL_SURFACE ( 'NONE', #93, 1.999999999999992228, 0.2617993877991414142 ) ;
#151 = UNCERTAINTY_MEASURE_WITH_UNIT (LENGTH_MEASURE( 1.000000000000000082E-05 ), #20, 'distance_accuracy_value', 'NONE');
#152 = DIRECTION ( 'NONE',  ( 3.491481338843133355E-15, -1.224646799147353700E-16, 1.000000000000000000 ) ) ;
#153 = APPROVAL ( #192, 'UNSPECIFIED' ) ;
#154 = CARTESIAN_POINT ( 'NONE',  ( 3.676910041829524493E-14, -1.289686432914255819E-15, 10.53108891324571950 ) ) ;
#155 = ORIENTED_EDGE ( 'NONE', *, *, #138, .F. ) ;
#156 = APPROVAL_DATE_TIME ( #137, #233 ) ;
#157 = CC_DESIGN_APPROVAL ( #233, ( #12 ) ) ;
#158 = APPLICATION_PROTOCOL_DEFINITION ( 'international standard', 'config_control_design', 1994, #198 ) ;
#159 = CARTESIAN_POINT ( 'NONE',  ( 0.0000000000000000000, 0.0000000000000000000, 0.0000000000000000000 ) ) ;
#160 = PRODUCT ( '956660', '956660', '', ( #230 ) ) ;
#161 = AXIS2_PLACEMENT_3D ( 'NONE', #209, #152, #44 ) ;
#162 = CYLINDRICAL_SURFACE ( 'NONE', #71, 0.2499999999999998890 ) ;
#163 = DIRECTION ( 'NONE',  ( 4.275831445896961234E-31, 1.000000000000000000, 1.224646799147353700E-16 ) ) ;
#164 = FACE_OUTER_BOUND ( 'NONE', #197, .T. ) ;
#165 = CARTESIAN_POINT ( 'NONE',  ( 5.237222008264704766E-15, -1.836970198721033385E-16, 1.500000000000001332 ) ) ;
#166 =( NAMED_UNIT ( * ) SI_UNIT ( $, .STERADIAN. ) SOLID_ANGLE_UNIT ( ) );
#167 = DIRECTION ( 'NONE',  ( -3.491481338843133355E-15, 1.224646799147353700E-16, -1.000000000000000000 ) ) ;
#168 = DIRECTION ( 'NONE',  ( 0.0000000000000000000, 1.000000000000000000, 0.0000000000000000000 ) ) ;
#169 = VERTEX_POINT ( 'NONE', #110 ) ;
#170 = APPROVAL_PERSON_ORGANIZATION ( #118, #153, #7 ) ;
#171 = SECURITY_CLASSIFICATION_LEVEL ( 'unclassified' ) ;
#172 = CALENDAR_DATE ( 2021, 15, 10 ) ;
#173 = ADVANCED_FACE ( 'NONE', ( #129 ), #241, .F. ) ;
#174 = COORDINATED_UNIVERSAL_TIME_OFFSET ( 1, 0, .AHEAD. ) ;
#175 = CIRCLE ( 'NONE', #238, 1.199999999999992184 ) ;
#176 = PERSON_AND_ORGANIZATION ( #136, #16 ) ;
#177 = CALENDAR_DATE ( 2021, 15, 10 ) ;
#178 = ORIENTED_EDGE ( 'NONE', *, *, #188, .T. ) ;
#179 = MANIFOLD_SOLID_BREP ( 'Corps-Déplacer/Copier1[2]', #182 ) ;
#180 = DIRECTION ( 'NONE',  ( -4.275831445896960358E-31, -1.000000000000000000, -1.224646799147353700E-16 ) ) ;
#181 = EDGE_LOOP ( 'NONE', ( #85 ) ) ;
#182 = CLOSED_SHELL ( 'NONE', ( #28, #79, #131 ) ) ;
#183 = DIRECTION ( 'NONE',  ( 3.491481338843133355E-15, -1.224646799147353700E-16, 1.000000000000000000 ) ) ;
#184 = ADVANCED_FACE ( 'NONE', ( #224, #60 ), #194, .T. ) ;
#185 = DIRECTION ( 'NONE',  ( 0.0000000000000000000, -1.000000000000000000, 0.0000000000000000000 ) ) ;
#186 = DIRECTION ( 'NONE',  ( -3.491481338843133355E-15, 1.224646799147353700E-16, -1.000000000000000000 ) ) ;
#187 = VERTEX_POINT ( 'NONE', #58 ) ;
#188 = EDGE_CURVE ( 'NONE', #169, #169, #175, .T. ) ;
#189 = FACE_BOUND ( 'NONE', #11, .T. ) ;
#190 = PRODUCT_RELATED_PRODUCT_CATEGORY ( 'detail', '', ( #160 ) ) ;
#191 = DATE_TIME_ROLE ( 'creation_date' ) ;
#192 = APPROVAL_STATUS ( 'not_yet_approved' ) ;
#193 = COORDINATED_UNIVERSAL_TIME_OFFSET ( 1, 0, .AHEAD. ) ;
#194 = CONICAL_SURFACE ( 'NONE', #56, 1.199999999999992184, 0.7853981633974338461 ) ;
#195 = CC_DESIGN_PERSON_AND_ORGANIZATION_ASSIGNMENT ( #232, #32, ( #208 ) ) ;
#196 = APPROVAL_DATE_TIME ( #119, #239 ) ;
#197 = EDGE_LOOP ( 'NONE', ( #155 ) ) ;
#198 = APPLICATION_CONTEXT ( 'configuration controlled 3d designs of mechanical parts and assemblies' ) ;
#199 = ORIENTED_EDGE ( 'NONE', *, *, #36, .T. ) ;
#200 = EDGE_CURVE ( 'NONE', #3, #3, #116, .T. ) ;
#201 = ORIENTED_EDGE ( 'NONE', *, *, #149, .F. ) ;
#202 = EDGE_LOOP ( 'NONE', ( #144 ) ) ;
#203 = AXIS2_PLACEMENT_3D ( 'NONE', #77, #186, #59 ) ;
#204 = EDGE_LOOP ( 'NONE', ( #216 ) ) ;
#205 = CARTESIAN_POINT ( 'NONE',  ( 5.237222008264704766E-15, -0.2500000000000000555, 1.500000000000001332 ) ) ;
#206 = DIRECTION ( 'NONE',  ( 3.491481338843133355E-15, -1.224646799147353700E-16, 1.000000000000000000 ) ) ;
#207 = DIRECTION ( 'NONE',  ( 0.0000000000000000000, -1.000000000000000000, 0.0000000000000000000 ) ) ;
#208 = PRODUCT_DEFINITION_FORMATION_WITH_SPECIFIED_SOURCE ( 'ANY', '', #160, .NOT_KNOWN. ) ;
#209 = CARTESIAN_POINT ( 'NONE',  ( 5.237222008264700033E-15, 1.124819836996384585E-32, 1.500000000000000000 ) ) ;
#210 = DIRECTION ( 'NONE',  ( 1.000000000000000000, 0.0000000000000000000, 0.0000000000000000000 ) ) ;
#211 = AXIS2_PLACEMENT_3D ( 'NONE', #219, #108, #145 ) ;
#212 = APPROVAL_ROLE ( '' ) ;
#213 =( GEOMETRIC_REPRESENTATION_CONTEXT ( 3 ) GLOBAL_UNCERTAINTY_ASSIGNED_CONTEXT ( ( #151 ) ) GLOBAL_UNIT_ASSIGNED_CONTEXT ( ( #20, #243, #166 ) ) REPRESENTATION_CONTEXT ( 'NONE', 'WORKASPACE' ) );
#214 = EDGE_LOOP ( 'NONE', ( #37 ) ) ;
#215 = ADVANCED_FACE ( 'NONE', ( #95, #130 ), #132, .T. ) ;
#216 = ORIENTED_EDGE ( 'NONE', *, *, #200, .T. ) ;
#217 = CC_DESIGN_SECURITY_CLASSIFICATION ( #12, ( #208 ) ) ;
#218 = ORIENTED_EDGE ( 'NONE', *, *, #200, .F. ) ;
#219 = CARTESIAN_POINT ( 'NONE',  ( 3.886269115681177054E-16, -1.363119710879243784E-17, 0.1113071713271379659 ) ) ;
#220 = FACE_OUTER_BOUND ( 'NONE', #15, .T. ) ;
#221 = CC_DESIGN_APPROVAL ( #153, ( #62 ) ) ;
#222 = DIRECTION ( 'NONE',  ( 3.491481338843133355E-15, -1.224646799147353700E-16, 1.000000000000000000 ) ) ;
#223 = CARTESIAN_POINT ( 'NONE',  ( 1.316288464743860707E-13, 1.499999999999987566, 37.69999999999998153 ) ) ;
#224 = FACE_OUTER_BOUND ( 'NONE', #67, .T. ) ;
#225 = CARTESIAN_POINT ( 'NONE',  ( 1.326762908760390170E-13, -4.653657836759943518E-15, 37.99999999999999289 ) ) ;
#226 = APPROVAL_PERSON_ORGANIZATION ( #29, #239, #212 ) ;
#227 = DATE_AND_TIME ( #46, #43 ) ;
#228 = LOCAL_TIME ( 11, 34, 23.00000000000000000, #99 ) ;
#229 = DATE_AND_TIME ( #172, #228 ) ;
#230 = MECHANICAL_CONTEXT ( 'NONE', #26, 'mechanical' ) ;
#231 = ADVANCED_FACE ( 'NONE', ( #189, #63 ), #150, .T. ) ;
#232 = PERSON_AND_ORGANIZATION ( #136, #16 ) ;
#233 = APPROVAL ( #10, 'UNSPECIFIED' ) ;
#234 = EDGE_CURVE ( 'NONE', #74, #74, #66, .T. ) ;
#235 = EDGE_LOOP ( 'NONE', ( #88 ) ) ;
#236 = FACE_OUTER_BOUND ( 'NONE', #124, .T. ) ;
#237 = ORIENTED_EDGE ( 'NONE', *, *, #234, .F. ) ;
#238 = AXIS2_PLACEMENT_3D ( 'NONE', #40, #61, #111 ) ;
#239 = APPROVAL ( #98, 'UNSPECIFIED' ) ;
#240 = CARTESIAN_POINT ( 'NONE',  ( 5.237222008264704766E-15, -1.836970198721033385E-16, 1.500000000000001332 ) ) ;
#241 = PLANE ( 'NONE',  #161 ) ;
#242 = AXIS2_PLACEMENT_3D ( 'NONE', #127, #87, #163 ) ;
#243 =( NAMED_UNIT ( * ) PLANE_ANGLE_UNIT ( ) SI_UNIT ( $, .RADIAN. ) );
ENDSEC;
END-ISO-10303-21;
