ISO-10303-21;
HEADER;
FILE_DESCRIPTION (( 'STEP AP203' ),
    '1' );
FILE_NAME ('956659.step',
    '2021-10-15T09:34:22',
    ( '' ),
    ( '' ),
    'SwSTEP 2.0',
    'SolidWorks 2019',
    '' );
FILE_SCHEMA (( 'CONFIG_CONTROL_DESIGN' ));
ENDSEC;

DATA;
#1 = CARTESIAN_POINT ( 'NONE',  ( 4.189777606611760026E-15, -1.734723475976812025E-16, 1.200000000000000178 ) ) ;
#2 = DESIGN_CONTEXT ( 'detailed design', #242, 'design' ) ;
#3 = FACE_OUTER_BOUND ( 'NONE', #187, .T. ) ;
#4 = CARTESIAN_POINT ( 'NONE',  ( 3.462743463473281464E-14, -1.214566909361190001E-15, 9.917691453624168929 ) ) ;
#5 = CARTESIAN_POINT ( 'NONE',  ( 3.109015292544796098E-16, -1.090495768703287175E-17, 0.08904573706170620939 ) ) ;
#6 = DATE_TIME_ROLE ( 'creation_date' ) ;
#7 = COORDINATED_UNIVERSAL_TIME_OFFSET ( 1, 0, .AHEAD. ) ;
#8 = MECHANICAL_CONTEXT ( 'NONE', #107, 'mechanical' ) ;
#9 = APPROVAL_PERSON_ORGANIZATION ( #196, #87, #178 ) ;
#10 = PERSON_AND_ORGANIZATION_ROLE ( 'design_owner' ) ;
#11 = CIRCLE ( 'NONE', #190, 0.1999999999999998723 ) ;
#12 = ADVANCED_FACE ( 'NONE', ( #49, #24 ), #171, .T. ) ;
#13 = DATE_AND_TIME ( #69, #180 ) ;
#14 = CC_DESIGN_DATE_AND_TIME_ASSIGNMENT ( #176, #6, ( #33 ) ) ;
#15 = SHAPE_DEFINITION_REPRESENTATION ( #79, #89 ) ;
#16 = ORIENTED_EDGE ( 'NONE', *, *, #218, .F. ) ;
#17 = AXIS2_PLACEMENT_3D ( 'NONE', #43, #173, #175 ) ;
#18 = CC_DESIGN_SECURITY_CLASSIFICATION ( #165, ( #111 ) ) ;
#19 = EDGE_LOOP ( 'NONE', ( #146 ) ) ;
#20 = ORIENTED_EDGE ( 'NONE', *, *, #192, .F. ) ;
#21 = DIRECTION ( 'NONE',  ( 0.0000000000000000000, 1.000000000000000000, 0.0000000000000000000 ) ) ;
#22 = AXIS2_PLACEMENT_3D ( 'NONE', #4, #99, #98 ) ;
#23 = CARTESIAN_POINT ( 'NONE',  ( 4.189777606611758449E-15, -1.469576158976815911E-16, 1.199999999999999734 ) ) ;
#24 = FACE_OUTER_BOUND ( 'NONE', #167, .T. ) ;
#25 = CC_DESIGN_PERSON_AND_ORGANIZATION_ASSIGNMENT ( #92, #10, ( #131 ) ) ;
#26 = DIRECTION ( 'NONE',  ( 0.0000000000000000000, -1.000000000000000000, 0.0000000000000000000 ) ) ;
#27 = PLANE ( 'NONE',  #227 ) ;
#28 = APPROVAL_STATUS ( 'not_yet_approved' ) ;
#29 = CARTESIAN_POINT ( 'NONE',  ( 0.0000000000000000000, 0.0000000000000000000, 0.0000000000000000000 ) ) ;
#30 = CC_DESIGN_APPROVAL ( #87, ( #111 ) ) ;
#31 = VERTEX_POINT ( 'NONE', #182 ) ;
#32 = ORIENTED_EDGE ( 'NONE', *, *, #218, .T. ) ;
#33 = PRODUCT_DEFINITION ( 'UNKNOWN', '', #111, #2 ) ;
#34 = EDGE_LOOP ( 'NONE', ( #188 ) ) ;
#35 = PERSON_AND_ORGANIZATION ( #85, #183 ) ;
#36 = ORIENTED_EDGE ( 'NONE', *, *, #230, .T. ) ;
#37 = CONICAL_SURFACE ( 'NONE', #203, 0.1999999999999998723, 1.151917306316261547 ) ;
#38 = EDGE_LOOP ( 'NONE', ( #185 ) ) ;
#39 = FACE_OUTER_BOUND ( 'NONE', #93, .T. ) ;
#40 = CC_DESIGN_PERSON_AND_ORGANIZATION_ASSIGNMENT ( #35, #75, ( #111 ) ) ;
#41 = DIRECTION ( 'NONE',  ( 4.275831445896960358E-31, 1.000000000000000000, 1.224646799147353700E-16 ) ) ;
#42 = CIRCLE ( 'NONE', #58, 1.499999999999989786 ) ;
#43 = CARTESIAN_POINT ( 'NONE',  ( 1.316288464743860707E-13, -4.616918432785521870E-15, 37.69999999999998153 ) ) ;
#44 = CYLINDRICAL_SURFACE ( 'NONE', #17, 0.1999999999999998723 ) ;
#45 = DIRECTION ( 'NONE',  ( 3.491481338843133355E-15, -1.224646799147353947E-16, 1.000000000000000000 ) ) ;
#46 = DATE_AND_TIME ( #67, #53 ) ;
#47 = ADVANCED_FACE ( 'NONE', ( #65 ), #27, .F. ) ;
#48 = CARTESIAN_POINT ( 'NONE',  ( 1.326762908760390170E-13, -4.653657836759943518E-15, 37.99999999999999289 ) ) ;
#49 = FACE_BOUND ( 'NONE', #205, .T. ) ;
#50 = AXIS2_PLACEMENT_3D ( 'NONE', #172, #81, #228 ) ;
#51 = FACE_OUTER_BOUND ( 'NONE', #19, .T. ) ;
#52 = CARTESIAN_POINT ( 'NONE',  ( 4.189777606611758449E-15, -0.2000000000000000111, 1.199999999999999734 ) ) ;
#53 = LOCAL_TIME ( 11, 34, 22.00000000000000000, #234 ) ;
#54 = EDGE_LOOP ( 'NONE', ( #57 ) ) ;
#55 = ORIENTED_EDGE ( 'NONE', *, *, #170, .F. ) ;
#56 = APPROVAL_STATUS ( 'not_yet_approved' ) ;
#57 = ORIENTED_EDGE ( 'NONE', *, *, #141, .T. ) ;
#58 = AXIS2_PLACEMENT_3D ( 'NONE', #134, #211, #193 ) ;
#59 = CARTESIAN_POINT ( 'NONE',  ( 4.189777606611760026E-15, -1.734723475976812025E-16, 1.200000000000000178 ) ) ;
#60 = DIRECTION ( 'NONE',  ( -3.491481338843133355E-15, 1.224646799147353700E-16, -1.000000000000000000 ) ) ;
#61 = UNCERTAINTY_MEASURE_WITH_UNIT (LENGTH_MEASURE( 1.000000000000000082E-05 ), #157, 'distance_accuracy_value', 'NONE');
#62 = DIRECTION ( 'NONE',  ( 3.491481338843133355E-15, -1.224646799147353700E-16, 1.000000000000000000 ) ) ;
#63 = ADVANCED_FACE ( 'NONE', ( #138, #3 ), #44, .T. ) ;
#64 = LOCAL_TIME ( 11, 34, 22.00000000000000000, #91 ) ;
#65 = FACE_OUTER_BOUND ( 'NONE', #70, .T. ) ;
#66 = PLANE ( 'NONE',  #162 ) ;
#67 = CALENDAR_DATE ( 2021, 15, 10 ) ;
#68 = DIRECTION ( 'NONE',  ( 0.0000000000000000000, 1.000000000000000000, 0.0000000000000000000 ) ) ;
#69 = CALENDAR_DATE ( 2021, 15, 10 ) ;
#70 = EDGE_LOOP ( 'NONE', ( #20 ) ) ;
#71 = VERTEX_POINT ( 'NONE', #213 ) ;
#72 = ADVANCED_FACE ( 'NONE', ( #113 ), #37, .T. ) ;
#73 = AXIS2_PLACEMENT_3D ( 'NONE', #154, #225, #156 ) ;
#74 = APPROVAL_DATE_TIME ( #46, #202 ) ;
#75 = PERSON_AND_ORGANIZATION_ROLE ( 'creator' ) ;
#76 = AXIS2_PLACEMENT_3D ( 'NONE', #23, #62, #100 ) ;
#77 = APPROVAL_PERSON_ORGANIZATION ( #207, #128, #148 ) ;
#78 = PERSON_AND_ORGANIZATION_ROLE ( 'design_supplier' ) ;
#79 = PRODUCT_DEFINITION_SHAPE ( 'NONE', 'NONE',  #33 ) ;
#80 = DIRECTION ( 'NONE',  ( -3.491481338843133355E-15, 1.224646799147353700E-16, -1.000000000000000000 ) ) ;
#81 = DIRECTION ( 'NONE',  ( 3.491481338843133355E-15, -1.224646799147353700E-16, 1.000000000000000000 ) ) ;
#82 = EDGE_CURVE ( 'NONE', #105, #105, #104, .T. ) ;
#83 = FACE_OUTER_BOUND ( 'NONE', #149, .T. ) ;
#84 = CARTESIAN_POINT ( 'NONE',  ( 0.0000000000000000000, 0.0000000000000000000, 0.0000000000000000000 ) ) ;
#85 = PERSON ( 'UNSPECIFIED', 'UNSPECIFIED', 'UNSPECIFIED', ('UNSPECIFIED'), ('UNSPECIFIED'), ('UNSPECIFIED') ) ;
#86 = CARTESIAN_POINT ( 'NONE',  ( 1.316288464743860707E-13, -4.616918432785521870E-15, 37.69999999999998153 ) ) ;
#87 = APPROVAL ( #28, 'UNSPECIFIED' ) ;
#88 = FACE_BOUND ( 'NONE', #221, .T. ) ;
#89 = ADVANCED_BREP_SHAPE_REPRESENTATION ( '956659', ( #236, #238, #150 ), #115 ) ;
#90 = CONICAL_SURFACE ( 'NONE', #199, 1.199999999999992184, 0.7853981633974338461 ) ;
#91 = COORDINATED_UNIVERSAL_TIME_OFFSET ( 1, 0, .AHEAD. ) ;
#92 = PERSON_AND_ORGANIZATION ( #85, #183 ) ;
#93 = EDGE_LOOP ( 'NONE', ( #237 ) ) ;
#94 = COORDINATED_UNIVERSAL_TIME_OFFSET ( 1, 0, .AHEAD. ) ;
#95 = CIRCLE ( 'NONE', #50, 0.1999999999999998723 ) ;
#96 = EDGE_LOOP ( 'NONE', ( #127 ) ) ;
#97 = CC_DESIGN_PERSON_AND_ORGANIZATION_ASSIGNMENT ( #129, #220, ( #165 ) ) ;
#98 = DIRECTION ( 'NONE',  ( 0.0000000000000000000, -1.000000000000000000, 0.0000000000000000000 ) ) ;
#99 = DIRECTION ( 'NONE',  ( 3.491481338843133355E-15, -1.224646799147353947E-16, 1.000000000000000000 ) ) ;
#100 = DIRECTION ( 'NONE',  ( 0.0000000000000000000, -1.000000000000000000, 0.0000000000000000000 ) ) ;
#101 = AXIS2_PLACEMENT_3D ( 'NONE', #191, #174, #26 ) ;
#102 = DIRECTION ( 'NONE',  ( -3.491481338843133355E-15, 1.224646799147353700E-16, -1.000000000000000000 ) ) ;
#103 = PERSON_AND_ORGANIZATION ( #85, #183 ) ;
#104 = CIRCLE ( 'NONE', #210, 1.499999999999992006 ) ;
#105 = VERTEX_POINT ( 'NONE', #139 ) ;
#106 = ADVANCED_FACE ( 'NONE', ( #194, #39 ), #132, .T. ) ;
#107 = APPLICATION_CONTEXT ( 'configuration controlled 3d designs of mechanical parts and assemblies' ) ;
#108 = CARTESIAN_POINT ( 'NONE',  ( 1.326762908760390170E-13, -4.653657836759943518E-15, 37.99999999999999289 ) ) ;
#109 = PRODUCT_RELATED_PRODUCT_CATEGORY ( 'detail', '', ( #131 ) ) ;
#110 = DIRECTION ( 'NONE',  ( -4.814824860968093136E-31, -1.000000000000000000, -1.355252715606881529E-16 ) ) ;
#111 = PRODUCT_DEFINITION_FORMATION_WITH_SPECIFIED_SOURCE ( 'ANY', '', #131, .NOT_KNOWN. ) ;
#112 = FACE_OUTER_BOUND ( 'NONE', #239, .T. ) ;
#113 = FACE_OUTER_BOUND ( 'NONE', #168, .T. ) ;
#114 = DIRECTION ( 'NONE',  ( -4.814824860968093136E-31, -1.000000000000000000, -1.355252715606881529E-16 ) ) ;
#115 =( GEOMETRIC_REPRESENTATION_CONTEXT ( 3 ) GLOBAL_UNCERTAINTY_ASSIGNED_CONTEXT ( ( #61 ) ) GLOBAL_UNIT_ASSIGNED_CONTEXT ( ( #157, #214, #217 ) ) REPRESENTATION_CONTEXT ( 'NONE', 'WORKASPACE' ) );
#116 = PERSON_AND_ORGANIZATION ( #85, #183 ) ;
#117 = VERTEX_POINT ( 'NONE', #197 ) ;
#118 = ADVANCED_FACE ( 'NONE', ( #224 ), #66, .T. ) ;
#119 = CALENDAR_DATE ( 2021, 15, 10 ) ;
#120 = CLOSED_SHELL ( 'NONE', ( #118, #72, #63 ) ) ;
#121 = DIRECTION ( 'NONE',  ( 0.0000000000000000000, 0.0000000000000000000, 1.000000000000000000 ) ) ;
#122 = VERTEX_POINT ( 'NONE', #140 ) ;
#123 = COORDINATED_UNIVERSAL_TIME_OFFSET ( 1, 0, .AHEAD. ) ;
#124 = CC_DESIGN_PERSON_AND_ORGANIZATION_ASSIGNMENT ( #116, #179, ( #33 ) ) ;
#125 = LOCAL_TIME ( 11, 34, 22.00000000000000000, #94 ) ;
#126 = APPROVAL_DATE_TIME ( #13, #87 ) ;
#127 = ORIENTED_EDGE ( 'NONE', *, *, #141, .F. ) ;
#128 = APPROVAL ( #56, 'UNSPECIFIED' ) ;
#129 = PERSON_AND_ORGANIZATION ( #85, #183 ) ;
#130 = ORIENTED_EDGE ( 'NONE', *, *, #170, .T. ) ;
#131 = PRODUCT ( '956659', '956659', '', ( #8 ) ) ;
#132 = CYLINDRICAL_SURFACE ( 'NONE', #232, 1.499999999999989786 ) ;
#133 = PLANE ( 'NONE',  #186 ) ;
#134 = CARTESIAN_POINT ( 'NONE',  ( 2.811224175961198448E-14, -9.860447055739555576E-16, 8.051666049839660388 ) ) ;
#135 = CC_DESIGN_APPROVAL ( #128, ( #165 ) ) ;
#136 = DIRECTION ( 'NONE',  ( 3.491481338843133355E-15, -1.224646799147353700E-16, 1.000000000000000000 ) ) ;
#137 = EDGE_CURVE ( 'NONE', #31, #31, #144, .T. ) ;
#138 = FACE_OUTER_BOUND ( 'NONE', #96, .T. ) ;
#139 = CARTESIAN_POINT ( 'NONE',  ( 1.316288464743860707E-13, 1.499999999999987566, 37.69999999999998153 ) ) ;
#140 = CARTESIAN_POINT ( 'NONE',  ( 1.117274028429803147E-14, -0.2000000000000002609, 3.200000000000001510 ) ) ;
#141 = EDGE_CURVE ( 'NONE', #159, #159, #95, .T. ) ;
#142 = DIRECTION ( 'NONE',  ( -3.491481338843133355E-15, 1.224646799147353700E-16, -1.000000000000000000 ) ) ;
#143 = APPLICATION_PROTOCOL_DEFINITION ( 'international standard', 'config_control_design', 1994, #107 ) ;
#144 = CIRCLE ( 'NONE', #240, 1.199999999999992184 ) ;
#145 = CALENDAR_DATE ( 2021, 15, 10 ) ;
#146 = ORIENTED_EDGE ( 'NONE', *, *, #82, .F. ) ;
#147 = DATE_TIME_ROLE ( 'classification_date' ) ;
#148 = APPROVAL_ROLE ( '' ) ;
#149 = EDGE_LOOP ( 'NONE', ( #55 ) ) ;
#150 = AXIS2_PLACEMENT_3D ( 'NONE', #29, #121, #198 ) ;
#151 = CARTESIAN_POINT ( 'NONE',  ( 3.109015292544796098E-16, -1.090495768703287175E-17, 0.08904573706170620939 ) ) ;
#152 = ADVANCED_FACE ( 'NONE', ( #112 ), #133, .F. ) ;
#153 = CARTESIAN_POINT ( 'NONE',  ( 1.326762908760390170E-13, 8.998558695971025223E-33, 37.99999999999999289 ) ) ;
#154 = CARTESIAN_POINT ( 'NONE',  ( 1.316288464743860707E-13, -4.616918432785521870E-15, 37.69999999999998153 ) ) ;
#155 = DIRECTION ( 'NONE',  ( -4.275831445896960358E-31, -1.000000000000000000, -1.224646799147353700E-16 ) ) ;
#156 = DIRECTION ( 'NONE',  ( 0.0000000000000000000, -1.000000000000000000, 0.0000000000000000000 ) ) ;
#157 =( LENGTH_UNIT ( ) NAMED_UNIT ( * ) SI_UNIT ( .MILLI., .METRE. ) );
#158 = APPROVAL_PERSON_ORGANIZATION ( #103, #202, #233 ) ;
#159 = VERTEX_POINT ( 'NONE', #181 ) ;
#160 = APPROVAL_STATUS ( 'not_yet_approved' ) ;
#161 = ADVANCED_FACE ( 'NONE', ( #83, #212 ), #195, .T. ) ;
#162 = AXIS2_PLACEMENT_3D ( 'NONE', #1, #136, #241 ) ;
#163 = LOCAL_TIME ( 11, 34, 22.00000000000000000, #123 ) ;
#164 = SECURITY_CLASSIFICATION_LEVEL ( 'unclassified' ) ;
#165 = SECURITY_CLASSIFICATION ( '', '', #164 ) ;
#166 = PERSON_AND_ORGANIZATION ( #85, #183 ) ;
#167 = EDGE_LOOP ( 'NONE', ( #36 ) ) ;
#168 = EDGE_LOOP ( 'NONE', ( #16 ) ) ;
#169 = ORIENTED_EDGE ( 'NONE', *, *, #137, .T. ) ;
#170 = EDGE_CURVE ( 'NONE', #122, #122, #206, .T. ) ;
#171 = CONICAL_SURFACE ( 'NONE', #22, 1.999999999999992228, 0.2617993877991413587 ) ;
#172 = CARTESIAN_POINT ( 'NONE',  ( 4.189777606611758449E-15, -1.469576158976815911E-16, 1.199999999999999734 ) ) ;
#173 = DIRECTION ( 'NONE',  ( 3.491481338843133355E-15, -1.224646799147353947E-16, 1.000000000000000000 ) ) ;
#174 = DIRECTION ( 'NONE',  ( 3.491481338843133355E-15, -1.224646799147353947E-16, 1.000000000000000000 ) ) ;
#175 = DIRECTION ( 'NONE',  ( 0.0000000000000000000, -1.000000000000000000, 0.0000000000000000000 ) ) ;
#176 = DATE_AND_TIME ( #119, #64 ) ;
#177 = CC_DESIGN_PERSON_AND_ORGANIZATION_ASSIGNMENT ( #166, #78, ( #111 ) ) ;
#178 = APPROVAL_ROLE ( '' ) ;
#179 = PERSON_AND_ORGANIZATION_ROLE ( 'creator' ) ;
#180 = LOCAL_TIME ( 11, 34, 22.00000000000000000, #7 ) ;
#181 = CARTESIAN_POINT ( 'NONE',  ( 4.189777606611758449E-15, -0.2000000000000000111, 1.199999999999999734 ) ) ;
#182 = CARTESIAN_POINT ( 'NONE',  ( 1.326762908760390170E-13, 1.199999999999987521, 37.99999999999999289 ) ) ;
#183 = ORGANIZATION ( 'UNSPECIFIED', 'UNSPECIFIED', '' ) ;
#184 = CALENDAR_DATE ( 2021, 15, 10 ) ;
#185 = ORIENTED_EDGE ( 'NONE', *, *, #82, .T. ) ;
#186 = AXIS2_PLACEMENT_3D ( 'NONE', #153, #60, #41 ) ;
#187 = EDGE_LOOP ( 'NONE', ( #32 ) ) ;
#188 = ORIENTED_EDGE ( 'NONE', *, *, #192, .T. ) ;
#189 = DIRECTION ( 'NONE',  ( 3.491481338843133355E-15, -1.224646799147353700E-16, 1.000000000000000000 ) ) ;
#190 = AXIS2_PLACEMENT_3D ( 'NONE', #5, #45, #114 ) ;
#191 = CARTESIAN_POINT ( 'NONE',  ( 1.117274028429803147E-14, -3.918869757271524544E-16, 3.200000000000001510 ) ) ;
#192 = EDGE_CURVE ( 'NONE', #231, #231, #235, .T. ) ;
#193 = DIRECTION ( 'NONE',  ( 0.0000000000000000000, -1.000000000000000000, 0.0000000000000000000 ) ) ;
#194 = FACE_OUTER_BOUND ( 'NONE', #38, .T. ) ;
#195 = CYLINDRICAL_SURFACE ( 'NONE', #73, 0.1999999999999998723 ) ;
#196 = PERSON_AND_ORGANIZATION ( #85, #183 ) ;
#197 = CARTESIAN_POINT ( 'NONE',  ( 3.109015292544795112E-16, -0.1999999999999998723, 0.08904573706170618164 ) ) ;
#198 = DIRECTION ( 'NONE',  ( 1.000000000000000000, 0.0000000000000000000, 0.0000000000000000000 ) ) ;
#199 = AXIS2_PLACEMENT_3D ( 'NONE', #48, #142, #68 ) ;
#200 = APPLICATION_PROTOCOL_DEFINITION ( 'international standard', 'config_control_design', 1994, #242 ) ;
#201 = APPROVAL_DATE_TIME ( #222, #128 ) ;
#202 = APPROVAL ( #160, 'UNSPECIFIED' ) ;
#203 = AXIS2_PLACEMENT_3D ( 'NONE', #151, #223, #110 ) ;
#204 = DATE_AND_TIME ( #145, #125 ) ;
#205 = EDGE_LOOP ( 'NONE', ( #130 ) ) ;
#206 = CIRCLE ( 'NONE', #101, 0.1999999999999998723 ) ;
#207 = PERSON_AND_ORGANIZATION ( #85, #183 ) ;
#208 = DIRECTION ( 'NONE',  ( -3.491481338843133355E-15, 1.224646799147353700E-16, -1.000000000000000000 ) ) ;
#209 = DIRECTION ( 'NONE',  ( 0.0000000000000000000, 1.000000000000000000, 0.0000000000000000000 ) ) ;
#210 = AXIS2_PLACEMENT_3D ( 'NONE', #86, #102, #209 ) ;
#211 = DIRECTION ( 'NONE',  ( -3.491481338843133355E-15, 1.224646799147353947E-16, -1.000000000000000000 ) ) ;
#212 = FACE_OUTER_BOUND ( 'NONE', #34, .T. ) ;
#213 = CARTESIAN_POINT ( 'NONE',  ( 2.811224175961198448E-14, -1.499999999999990896, 8.051666049839660388 ) ) ;
#214 =( NAMED_UNIT ( * ) PLANE_ANGLE_UNIT ( ) SI_UNIT ( $, .RADIAN. ) );
#215 = CC_DESIGN_DATE_AND_TIME_ASSIGNMENT ( #204, #147, ( #165 ) ) ;
#216 = ORIENTED_EDGE ( 'NONE', *, *, #137, .F. ) ;
#217 =( NAMED_UNIT ( * ) SI_UNIT ( $, .STERADIAN. ) SOLID_ANGLE_UNIT ( ) );
#218 = EDGE_CURVE ( 'NONE', #117, #117, #11, .T. ) ;
#219 = CC_DESIGN_APPROVAL ( #202, ( #33 ) ) ;
#220 = PERSON_AND_ORGANIZATION_ROLE ( 'classification_officer' ) ;
#221 = EDGE_LOOP ( 'NONE', ( #169 ) ) ;
#222 = DATE_AND_TIME ( #184, #163 ) ;
#223 = DIRECTION ( 'NONE',  ( 3.491481338843133355E-15, -1.224646799147353947E-16, 1.000000000000000000 ) ) ;
#224 = FACE_OUTER_BOUND ( 'NONE', #54, .T. ) ;
#225 = DIRECTION ( 'NONE',  ( 3.491481338843133355E-15, -1.224646799147353947E-16, 1.000000000000000000 ) ) ;
#226 = CLOSED_SHELL ( 'NONE', ( #106, #243, #152, #161, #12, #47 ) ) ;
#227 = AXIS2_PLACEMENT_3D ( 'NONE', #59, #189, #155 ) ;
#228 = DIRECTION ( 'NONE',  ( 0.0000000000000000000, -1.000000000000000000, 0.0000000000000000000 ) ) ;
#229 = DIRECTION ( 'NONE',  ( 4.275831445896961234E-31, 1.000000000000000000, 1.224646799147353700E-16 ) ) ;
#230 = EDGE_CURVE ( 'NONE', #71, #71, #42, .T. ) ;
#231 = VERTEX_POINT ( 'NONE', #52 ) ;
#232 = AXIS2_PLACEMENT_3D ( 'NONE', #84, #208, #229 ) ;
#233 = APPROVAL_ROLE ( '' ) ;
#234 = COORDINATED_UNIVERSAL_TIME_OFFSET ( 1, 0, .AHEAD. ) ;
#235 = CIRCLE ( 'NONE', #76, 0.1999999999999998723 ) ;
#236 = MANIFOLD_SOLID_BREP ( 'Corps-Déplacer/Copier1[1]', #226 ) ;
#237 = ORIENTED_EDGE ( 'NONE', *, *, #230, .F. ) ;
#238 = MANIFOLD_SOLID_BREP ( 'Corps-Déplacer/Copier1[2]', #120 ) ;
#239 = EDGE_LOOP ( 'NONE', ( #216 ) ) ;
#240 = AXIS2_PLACEMENT_3D ( 'NONE', #108, #80, #21 ) ;
#241 = DIRECTION ( 'NONE',  ( -4.275831445896960358E-31, -1.000000000000000000, -1.224646799147353700E-16 ) ) ;
#242 = APPLICATION_CONTEXT ( 'configuration controlled 3d designs of mechanical parts and assemblies' ) ;
#243 = ADVANCED_FACE ( 'NONE', ( #51, #88 ), #90, .T. ) ;
ENDSEC;
END-ISO-10303-21;
