ISO-10303-21;
HEADER;
FILE_DESCRIPTION (( 'STEP AP203' ),
    '1' );
FILE_NAME ('956658.step',
    '2021-10-15T09:34:22',
    ( '' ),
    ( '' ),
    'SwSTEP 2.0',
    'SolidWorks 2019',
    '' );
FILE_SCHEMA (( 'CONFIG_CONTROL_DESIGN' ));
ENDSEC;

DATA;
#1 = ORIENTED_EDGE ( 'NONE', *, *, #94, .F. ) ;
#2 = APPROVAL_STATUS ( 'not_yet_approved' ) ;
#3 = DIRECTION ( 'NONE',  ( -3.491481338843133355E-15, 1.224646799147353947E-16, -1.000000000000000000 ) ) ;
#4 = CC_DESIGN_SECURITY_CLASSIFICATION ( #167, ( #30 ) ) ;
#5 = PERSON_AND_ORGANIZATION ( #24, #163 ) ;
#6 = FACE_OUTER_BOUND ( 'NONE', #16, .T. ) ;
#7 = FACE_OUTER_BOUND ( 'NONE', #93, .T. ) ;
#8 = DIRECTION ( 'NONE',  ( -3.209883240645412940E-31, -1.000000000000000000, -9.035018104045926161E-17 ) ) ;
#9 = LOCAL_TIME ( 11, 34, 22.00000000000000000, #230 ) ;
#10 = FACE_OUTER_BOUND ( 'NONE', #164, .T. ) ;
#11 = CALENDAR_DATE ( 2021, 15, 10 ) ;
#12 = CIRCLE ( 'NONE', #228, 1.199999999999992184 ) ;
#13 = ORIENTED_EDGE ( 'NONE', *, *, #202, .F. ) ;
#14 = APPLICATION_PROTOCOL_DEFINITION ( 'international standard', 'config_control_design', 1994, #28 ) ;
#15 = CARTESIAN_POINT ( 'NONE',  ( 0.0000000000000000000, 0.0000000000000000000, 0.0000000000000000000 ) ) ;
#16 = EDGE_LOOP ( 'NONE', ( #1 ) ) ;
#17 = APPROVAL_PERSON_ORGANIZATION ( #143, #183, #84 ) ;
#18 = DIRECTION ( 'NONE',  ( 3.491481338843133355E-15, -1.224646799147353700E-16, 1.000000000000000000 ) ) ;
#19 = CLOSED_SHELL ( 'NONE', ( #65, #67, #124 ) ) ;
#20 = CC_DESIGN_APPROVAL ( #77, ( #30 ) ) ;
#21 = CARTESIAN_POINT ( 'NONE',  ( 0.0000000000000000000, 0.0000000000000000000, 0.0000000000000000000 ) ) ;
#22 = DESIGN_CONTEXT ( 'detailed design', #112, 'design' ) ;
#23 = CARTESIAN_POINT ( 'NONE',  ( 1.316288464743860707E-13, -4.616918432785521870E-15, 37.69999999999998153 ) ) ;
#24 = PERSON ( 'UNSPECIFIED', 'UNSPECIFIED', 'UNSPECIFIED', ('UNSPECIFIED'), ('UNSPECIFIED'), ('UNSPECIFIED') ) ;
#25 = DIRECTION ( 'NONE',  ( 3.491481338843133355E-15, -1.224646799147353947E-16, 1.000000000000000000 ) ) ;
#26 = APPROVAL_DATE_TIME ( #198, #183 ) ;
#27 = CC_DESIGN_PERSON_AND_ORGANIZATION_ASSIGNMENT ( #5, #138, ( #167 ) ) ;
#28 = APPLICATION_CONTEXT ( 'configuration controlled 3d designs of mechanical parts and assemblies' ) ;
#29 = PRODUCT ( '956658', '956658', '', ( #47 ) ) ;
#30 = PRODUCT_DEFINITION_FORMATION_WITH_SPECIFIED_SOURCE ( 'ANY', '', #29, .NOT_KNOWN. ) ;
#31 = PRODUCT_DEFINITION ( 'UNKNOWN', '', #30, #22 ) ;
#32 = CARTESIAN_POINT ( 'NONE',  ( 1.326762908760390170E-13, 8.998558695971025223E-33, 37.99999999999999289 ) ) ;
#33 =( NAMED_UNIT ( * ) PLANE_ANGLE_UNIT ( ) SI_UNIT ( $, .RADIAN. ) );
#34 = PRODUCT_DEFINITION_SHAPE ( 'NONE', 'NONE',  #31 ) ;
#35 = ORIENTED_EDGE ( 'NONE', *, *, #219, .F. ) ;
#36 = VERTEX_POINT ( 'NONE', #127 ) ;
#37 = ORIENTED_EDGE ( 'NONE', *, *, #160, .F. ) ;
#38 = AXIS2_PLACEMENT_3D ( 'NONE', #40, #141, #8 ) ;
#39 = ADVANCED_FACE ( 'NONE', ( #151, #174 ), #99, .T. ) ;
#40 = CARTESIAN_POINT ( 'NONE',  ( 2.331761469408657717E-16, -8.178718265274846407E-18, 0.06678430279628139177 ) ) ;
#41 = DIRECTION ( 'NONE',  ( 0.0000000000000000000, -1.000000000000000000, 0.0000000000000000000 ) ) ;
#42 = DATE_TIME_ROLE ( 'classification_date' ) ;
#43 = DIRECTION ( 'NONE',  ( 3.491481338843133355E-15, -1.224646799147353700E-16, 1.000000000000000000 ) ) ;
#44 = AXIS2_PLACEMENT_3D ( 'NONE', #101, #80, #233 ) ;
#45 = DIRECTION ( 'NONE',  ( -4.275831445896960358E-31, -1.000000000000000000, -1.224646799147353700E-16 ) ) ;
#46 = DIRECTION ( 'NONE',  ( 3.491481338843133355E-15, -1.224646799147353700E-16, 1.000000000000000000 ) ) ;
#47 = MECHANICAL_CONTEXT ( 'NONE', #28, 'mechanical' ) ;
#48 = AXIS2_PLACEMENT_3D ( 'NONE', #175, #46, #98 ) ;
#49 = ADVANCED_FACE ( 'NONE', ( #116, #82 ), #120, .T. ) ;
#50 = COORDINATED_UNIVERSAL_TIME_OFFSET ( 1, 0, .AHEAD. ) ;
#51 = CALENDAR_DATE ( 2021, 15, 10 ) ;
#52 = FACE_OUTER_BOUND ( 'NONE', #169, .T. ) ;
#53 = CIRCLE ( 'NONE', #104, 0.1499999999999992450 ) ;
#54 = ORIENTED_EDGE ( 'NONE', *, *, #94, .T. ) ;
#55 = PERSON_AND_ORGANIZATION ( #24, #163 ) ;
#56 = EDGE_LOOP ( 'NONE', ( #96 ) ) ;
#57 = CALENDAR_DATE ( 2021, 15, 10 ) ;
#58 = EDGE_LOOP ( 'NONE', ( #150 ) ) ;
#59 = CIRCLE ( 'NONE', #152, 0.1499999999999992450 ) ;
#60 = CYLINDRICAL_SURFACE ( 'NONE', #85, 0.1499999999999992450 ) ;
#61 = PERSON_AND_ORGANIZATION ( #24, #163 ) ;
#62 = CARTESIAN_POINT ( 'NONE',  ( 1.326762908760390170E-13, -4.653657836759943518E-15, 37.99999999999999289 ) ) ;
#63 = DIRECTION ( 'NONE',  ( -3.491481338843133355E-15, 1.224646799147353700E-16, -1.000000000000000000 ) ) ;
#64 = DIRECTION ( 'NONE',  ( 4.275831445896961234E-31, 1.000000000000000000, 1.224646799147353700E-16 ) ) ;
#65 = ADVANCED_FACE ( 'NONE', ( #76 ), #159, .T. ) ;
#66 = CC_DESIGN_APPROVAL ( #144, ( #167 ) ) ;
#67 = ADVANCED_FACE ( 'NONE', ( #236 ), #196, .T. ) ;
#68 = APPROVAL_ROLE ( '' ) ;
#69 = CARTESIAN_POINT ( 'NONE',  ( 8.728703347107841277E-15, -0.1499999999999996891, 2.500000000000002220 ) ) ;
#70 = DIRECTION ( 'NONE',  ( 4.275831445896960358E-31, 1.000000000000000000, 1.224646799147353700E-16 ) ) ;
#71 = CC_DESIGN_PERSON_AND_ORGANIZATION_ASSIGNMENT ( #148, #184, ( #29 ) ) ;
#72 = EDGE_LOOP ( 'NONE', ( #205 ) ) ;
#73 = EDGE_LOOP ( 'NONE', ( #131 ) ) ;
#74 = PRODUCT_RELATED_PRODUCT_CATEGORY ( 'detail', '', ( #29 ) ) ;
#75 = EDGE_CURVE ( 'NONE', #130, #130, #146, .T. ) ;
#76 = FACE_OUTER_BOUND ( 'NONE', #56, .T. ) ;
#77 = APPROVAL ( #241, 'UNSPECIFIED' ) ;
#78 = DATE_AND_TIME ( #170, #9 ) ;
#79 = CARTESIAN_POINT ( 'NONE',  ( 3.142333204958812920E-15, 1.124819836996384858E-32, 0.8999999999999979128 ) ) ;
#80 = DIRECTION ( 'NONE',  ( 3.491481338843133355E-15, -1.224646799147353947E-16, 1.000000000000000000 ) ) ;
#81 = DIRECTION ( 'NONE',  ( -3.491481338843133355E-15, 1.224646799147353700E-16, -1.000000000000000000 ) ) ;
#82 = FACE_OUTER_BOUND ( 'NONE', #204, .T. ) ;
#83 = EDGE_CURVE ( 'NONE', #108, #108, #211, .T. ) ;
#84 = APPROVAL_ROLE ( '' ) ;
#85 = AXIS2_PLACEMENT_3D ( 'NONE', #137, #208, #41 ) ;
#86 = PERSON_AND_ORGANIZATION ( #24, #163 ) ;
#87 = CIRCLE ( 'NONE', #134, 1.499999999999992006 ) ;
#88 = PLANE ( 'NONE',  #180 ) ;
#89 = ORIENTED_EDGE ( 'NONE', *, *, #83, .T. ) ;
#90 = CC_DESIGN_PERSON_AND_ORGANIZATION_ASSIGNMENT ( #61, #209, ( #30 ) ) ;
#91 = VERTEX_POINT ( 'NONE', #69 ) ;
#92 = COORDINATED_UNIVERSAL_TIME_OFFSET ( 1, 0, .AHEAD. ) ;
#93 = EDGE_LOOP ( 'NONE', ( #223 ) ) ;
#94 = EDGE_CURVE ( 'NONE', #220, #220, #53, .T. ) ;
#95 = LOCAL_TIME ( 11, 34, 22.00000000000000000, #135 ) ;
#96 = ORIENTED_EDGE ( 'NONE', *, *, #160, .T. ) ;
#97 = EDGE_LOOP ( 'NONE', ( #13 ) ) ;
#98 = DIRECTION ( 'NONE',  ( -4.275831445896960358E-31, -1.000000000000000000, -1.224646799147353700E-16 ) ) ;
#99 = CONICAL_SURFACE ( 'NONE', #128, 1.199999999999992184, 0.7853981633974338461 ) ;
#100 = DIRECTION ( 'NONE',  ( 0.0000000000000000000, -1.000000000000000000, 0.0000000000000000000 ) ) ;
#101 = CARTESIAN_POINT ( 'NONE',  ( 8.728703347107841277E-15, -3.061616997868384127E-16, 2.500000000000002220 ) ) ;
#102 = CARTESIAN_POINT ( 'NONE',  ( 3.142333204958813314E-15, -1.102182119232606201E-16, 0.8999999999999980238 ) ) ;
#103 = DIRECTION ( 'NONE',  ( 0.0000000000000000000, -1.000000000000000000, 0.0000000000000000000 ) ) ;
#104 = AXIS2_PLACEMENT_3D ( 'NONE', #173, #193, #103 ) ;
#105 = ADVANCED_BREP_SHAPE_REPRESENTATION ( '956658', ( #239, #224, #140 ), #199 ) ;
#106 = CARTESIAN_POINT ( 'NONE',  ( 3.142333204958813314E-15, -0.1499999999999993561, 0.8999999999999980238 ) ) ;
#107 = EDGE_CURVE ( 'NONE', #126, #126, #12, .T. ) ;
#108 = VERTEX_POINT ( 'NONE', #181 ) ;
#109 = EDGE_LOOP ( 'NONE', ( #35 ) ) ;
#110 = APPROVAL_DATE_TIME ( #78, #144 ) ;
#111 = EDGE_LOOP ( 'NONE', ( #185 ) ) ;
#112 = APPLICATION_CONTEXT ( 'configuration controlled 3d designs of mechanical parts and assemblies' ) ;
#113 = DATE_AND_TIME ( #51, #238 ) ;
#114 = ORIENTED_EDGE ( 'NONE', *, *, #75, .F. ) ;
#115 = FACE_OUTER_BOUND ( 'NONE', #227, .T. ) ;
#116 = FACE_OUTER_BOUND ( 'NONE', #111, .T. ) ;
#117 = SECURITY_CLASSIFICATION_LEVEL ( 'unclassified' ) ;
#118 = CONICAL_SURFACE ( 'NONE', #149, 1.999999999999992673, 0.2617993877991413032 ) ;
#119 = APPROVAL_PERSON_ORGANIZATION ( #55, #144, #225 ) ;
#120 = CYLINDRICAL_SURFACE ( 'NONE', #217, 1.499999999999989786 ) ;
#121 = DIRECTION ( 'NONE',  ( 0.0000000000000000000, -1.000000000000000000, 0.0000000000000000000 ) ) ;
#122 = DIRECTION ( 'NONE',  ( 0.0000000000000000000, 1.000000000000000000, 0.0000000000000000000 ) ) ;
#123 = APPROVAL_STATUS ( 'not_yet_approved' ) ;
#124 = ADVANCED_FACE ( 'NONE', ( #189, #115 ), #156, .T. ) ;
#125 = CALENDAR_DATE ( 2021, 15, 10 ) ;
#126 = VERTEX_POINT ( 'NONE', #203 ) ;
#127 = CARTESIAN_POINT ( 'NONE',  ( 3.142333204958813314E-15, -0.1499999999999993561, 0.8999999999999980238 ) ) ;
#128 = AXIS2_PLACEMENT_3D ( 'NONE', #195, #63, #194 ) ;
#129 = CC_DESIGN_APPROVAL ( #183, ( #31 ) ) ;
#130 = VERTEX_POINT ( 'NONE', #182 ) ;
#131 = ORIENTED_EDGE ( 'NONE', *, *, #219, .T. ) ;
#132 = ORIENTED_EDGE ( 'NONE', *, *, #107, .F. ) ;
#133 = DATE_AND_TIME ( #57, #95 ) ;
#134 = AXIS2_PLACEMENT_3D ( 'NONE', #171, #81, #122 ) ;
#135 = COORDINATED_UNIVERSAL_TIME_OFFSET ( 1, 0, .AHEAD. ) ;
#136 = CC_DESIGN_PERSON_AND_ORGANIZATION_ASSIGNMENT ( #188, #226, ( #30 ) ) ;
#137 = CARTESIAN_POINT ( 'NONE',  ( 1.316288464743860707E-13, -4.616918432785521870E-15, 37.69999999999998153 ) ) ;
#138 = PERSON_AND_ORGANIZATION_ROLE ( 'classification_officer' ) ;
#139 = DIRECTION ( 'NONE',  ( 0.0000000000000000000, -1.000000000000000000, 0.0000000000000000000 ) ) ;
#140 = AXIS2_PLACEMENT_3D ( 'NONE', #15, #166, #179 ) ;
#141 = DIRECTION ( 'NONE',  ( 3.491481338843133355E-15, -1.224646799147353947E-16, 1.000000000000000000 ) ) ;
#142 = DIRECTION ( 'NONE',  ( 0.0000000000000000000, 1.000000000000000000, 0.0000000000000000000 ) ) ;
#143 = PERSON_AND_ORGANIZATION ( #24, #163 ) ;
#144 = APPROVAL ( #2, 'UNSPECIFIED' ) ;
#145 = DIRECTION ( 'NONE',  ( -3.491481338843133355E-15, 1.224646799147353700E-16, -1.000000000000000000 ) ) ;
#146 = CIRCLE ( 'NONE', #172, 1.499999999999989786 ) ;
#147 = DATE_TIME_ROLE ( 'creation_date' ) ;
#148 = PERSON_AND_ORGANIZATION ( #24, #163 ) ;
#149 = AXIS2_PLACEMENT_3D ( 'NONE', #155, #232, #139 ) ;
#150 = ORIENTED_EDGE ( 'NONE', *, *, #107, .T. ) ;
#151 = FACE_OUTER_BOUND ( 'NONE', #97, .T. ) ;
#152 = AXIS2_PLACEMENT_3D ( 'NONE', #102, #43, #100 ) ;
#153 = APPROVAL_DATE_TIME ( #113, #77 ) ;
#154 = CARTESIAN_POINT ( 'NONE',  ( 2.631972410993388014E-14, -9.231716500123642799E-16, 7.538268590218114795 ) ) ;
#155 = CARTESIAN_POINT ( 'NONE',  ( 3.283491698505472292E-14, -1.151693853799599117E-15, 9.404293994002625112 ) ) ;
#156 = CYLINDRICAL_SURFACE ( 'NONE', #191, 0.1499999999999992450 ) ;
#157 = AXIS2_PLACEMENT_3D ( 'NONE', #79, #18, #45 ) ;
#158 = DIRECTION ( 'NONE',  ( -3.491481338843133355E-15, 1.224646799147353700E-16, -1.000000000000000000 ) ) ;
#159 = PLANE ( 'NONE',  #157 ) ;
#160 = EDGE_CURVE ( 'NONE', #36, #36, #59, .T. ) ;
#161 = PERSON_AND_ORGANIZATION ( #24, #163 ) ;
#162 = AXIS2_PLACEMENT_3D ( 'NONE', #214, #25, #210 ) ;
#163 = ORGANIZATION ( 'UNSPECIFIED', 'UNSPECIFIED', '' ) ;
#164 = EDGE_LOOP ( 'NONE', ( #54 ) ) ;
#165 =( NAMED_UNIT ( * ) SI_UNIT ( $, .STERADIAN. ) SOLID_ANGLE_UNIT ( ) );
#166 = DIRECTION ( 'NONE',  ( 0.0000000000000000000, 0.0000000000000000000, 1.000000000000000000 ) ) ;
#167 = SECURITY_CLASSIFICATION ( '', '', #117 ) ;
#168 = ADVANCED_FACE ( 'NONE', ( #6 ), #207, .F. ) ;
#169 = EDGE_LOOP ( 'NONE', ( #132 ) ) ;
#170 = CALENDAR_DATE ( 2021, 15, 10 ) ;
#171 = CARTESIAN_POINT ( 'NONE',  ( 1.316288464743860707E-13, -4.616918432785521870E-15, 37.69999999999998153 ) ) ;
#172 = AXIS2_PLACEMENT_3D ( 'NONE', #154, #3, #121 ) ;
#173 = CARTESIAN_POINT ( 'NONE',  ( 3.142333204958813314E-15, -1.102182119232606201E-16, 0.8999999999999980238 ) ) ;
#174 = FACE_BOUND ( 'NONE', #58, .T. ) ;
#175 = CARTESIAN_POINT ( 'NONE',  ( 3.142333204958812920E-15, 1.124819836996384858E-32, 0.8999999999999979128 ) ) ;
#176 = CLOSED_SHELL ( 'NONE', ( #49, #39, #237, #206, #215, #168 ) ) ;
#177 = LOCAL_TIME ( 11, 34, 22.00000000000000000, #50 ) ;
#178 = FACE_OUTER_BOUND ( 'NONE', #109, .T. ) ;
#179 = DIRECTION ( 'NONE',  ( 1.000000000000000000, 0.0000000000000000000, 0.0000000000000000000 ) ) ;
#180 = AXIS2_PLACEMENT_3D ( 'NONE', #32, #145, #70 ) ;
#181 = CARTESIAN_POINT ( 'NONE',  ( 2.331761469408657224E-16, -0.1499999999999990785, 0.06678430279628137789 ) ) ;
#182 = CARTESIAN_POINT ( 'NONE',  ( 2.631972410993388014E-14, -1.499999999999990674, 7.538268590218114795 ) ) ;
#183 = APPROVAL ( #123, 'UNSPECIFIED' ) ;
#184 = PERSON_AND_ORGANIZATION_ROLE ( 'design_owner' ) ;
#185 = ORIENTED_EDGE ( 'NONE', *, *, #202, .T. ) ;
#186 = CC_DESIGN_DATE_AND_TIME_ASSIGNMENT ( #200, #147, ( #31 ) ) ;
#187 = EDGE_LOOP ( 'NONE', ( #37 ) ) ;
#188 = PERSON_AND_ORGANIZATION ( #24, #163 ) ;
#189 = FACE_OUTER_BOUND ( 'NONE', #187, .T. ) ;
#190 = FACE_BOUND ( 'NONE', #73, .T. ) ;
#191 = AXIS2_PLACEMENT_3D ( 'NONE', #23, #212, #231 ) ;
#192 = SHAPE_DEFINITION_REPRESENTATION ( #34, #105 ) ;
#193 = DIRECTION ( 'NONE',  ( 3.491481338843133355E-15, -1.224646799147353700E-16, 1.000000000000000000 ) ) ;
#194 = DIRECTION ( 'NONE',  ( 0.0000000000000000000, 1.000000000000000000, 0.0000000000000000000 ) ) ;
#195 = CARTESIAN_POINT ( 'NONE',  ( 1.326762908760390170E-13, -4.653657836759943518E-15, 37.99999999999999289 ) ) ;
#196 = CONICAL_SURFACE ( 'NONE', #38, 0.1499999999999990785, 1.151917306316250000 ) ;
#197 = APPROVAL_PERSON_ORGANIZATION ( #86, #77, #68 ) ;
#198 = DATE_AND_TIME ( #11, #243 ) ;
#199 =( GEOMETRIC_REPRESENTATION_CONTEXT ( 3 ) GLOBAL_UNCERTAINTY_ASSIGNED_CONTEXT ( ( #213 ) ) GLOBAL_UNIT_ASSIGNED_CONTEXT ( ( #216, #33, #165 ) ) REPRESENTATION_CONTEXT ( 'NONE', 'WORKASPACE' ) );
#200 = DATE_AND_TIME ( #125, #177 ) ;
#201 = VERTEX_POINT ( 'NONE', #242 ) ;
#202 = EDGE_CURVE ( 'NONE', #201, #201, #87, .T. ) ;
#203 = CARTESIAN_POINT ( 'NONE',  ( 1.326762908760390170E-13, 1.199999999999987521, 37.99999999999999289 ) ) ;
#204 = EDGE_LOOP ( 'NONE', ( #114 ) ) ;
#205 = ORIENTED_EDGE ( 'NONE', *, *, #83, .F. ) ;
#206 = ADVANCED_FACE ( 'NONE', ( #178, #10 ), #60, .T. ) ;
#207 = PLANE ( 'NONE',  #48 ) ;
#208 = DIRECTION ( 'NONE',  ( 3.491481338843133355E-15, -1.224646799147353947E-16, 1.000000000000000000 ) ) ;
#209 = PERSON_AND_ORGANIZATION_ROLE ( 'design_supplier' ) ;
#210 = DIRECTION ( 'NONE',  ( -3.209883240645412940E-31, -1.000000000000000000, -9.035018104045926161E-17 ) ) ;
#211 = CIRCLE ( 'NONE', #162, 0.1499999999999990785 ) ;
#212 = DIRECTION ( 'NONE',  ( 3.491481338843133355E-15, -1.224646799147353947E-16, 1.000000000000000000 ) ) ;
#213 = UNCERTAINTY_MEASURE_WITH_UNIT (LENGTH_MEASURE( 1.000000000000000082E-05 ), #216, 'distance_accuracy_value', 'NONE');
#214 = CARTESIAN_POINT ( 'NONE',  ( 2.331761469408657717E-16, -8.178718265274846407E-18, 0.06678430279628139177 ) ) ;
#215 = ADVANCED_FACE ( 'NONE', ( #190, #7 ), #118, .T. ) ;
#216 =( LENGTH_UNIT ( ) NAMED_UNIT ( * ) SI_UNIT ( .MILLI., .METRE. ) );
#217 = AXIS2_PLACEMENT_3D ( 'NONE', #21, #234, #64 ) ;
#218 = COORDINATED_UNIVERSAL_TIME_OFFSET ( 1, 0, .AHEAD. ) ;
#219 = EDGE_CURVE ( 'NONE', #91, #91, #222, .T. ) ;
#220 = VERTEX_POINT ( 'NONE', #106 ) ;
#221 = APPLICATION_PROTOCOL_DEFINITION ( 'international standard', 'config_control_design', 1994, #112 ) ;
#222 = CIRCLE ( 'NONE', #44, 0.1499999999999993838 ) ;
#223 = ORIENTED_EDGE ( 'NONE', *, *, #75, .T. ) ;
#224 = MANIFOLD_SOLID_BREP ( 'Corps-Déplacer/Copier1[2]', #19 ) ;
#225 = APPROVAL_ROLE ( '' ) ;
#226 = PERSON_AND_ORGANIZATION_ROLE ( 'creator' ) ;
#227 = EDGE_LOOP ( 'NONE', ( #89 ) ) ;
#228 = AXIS2_PLACEMENT_3D ( 'NONE', #62, #158, #142 ) ;
#229 = CC_DESIGN_DATE_AND_TIME_ASSIGNMENT ( #133, #42, ( #167 ) ) ;
#230 = COORDINATED_UNIVERSAL_TIME_OFFSET ( 1, 0, .AHEAD. ) ;
#231 = DIRECTION ( 'NONE',  ( 0.0000000000000000000, -1.000000000000000000, 0.0000000000000000000 ) ) ;
#232 = DIRECTION ( 'NONE',  ( 3.491481338843133355E-15, -1.224646799147353947E-16, 1.000000000000000000 ) ) ;
#233 = DIRECTION ( 'NONE',  ( 0.0000000000000000000, -1.000000000000000000, 0.0000000000000000000 ) ) ;
#234 = DIRECTION ( 'NONE',  ( -3.491481338843133355E-15, 1.224646799147353700E-16, -1.000000000000000000 ) ) ;
#235 = CC_DESIGN_PERSON_AND_ORGANIZATION_ASSIGNMENT ( #161, #240, ( #31 ) ) ;
#236 = FACE_OUTER_BOUND ( 'NONE', #72, .T. ) ;
#237 = ADVANCED_FACE ( 'NONE', ( #52 ), #88, .F. ) ;
#238 = LOCAL_TIME ( 11, 34, 22.00000000000000000, #218 ) ;
#239 = MANIFOLD_SOLID_BREP ( 'Corps-Déplacer/Copier1[1]', #176 ) ;
#240 = PERSON_AND_ORGANIZATION_ROLE ( 'creator' ) ;
#241 = APPROVAL_STATUS ( 'not_yet_approved' ) ;
#242 = CARTESIAN_POINT ( 'NONE',  ( 1.316288464743860707E-13, 1.499999999999987566, 37.69999999999998153 ) ) ;
#243 = LOCAL_TIME ( 11, 34, 22.00000000000000000, #92 ) ;
ENDSEC;
END-ISO-10303-21;
