ISO-10303-21;
HEADER;
FILE_DESCRIPTION (( 'STEP AP203' ),
    '1' );
FILE_NAME ('956647.step',
    '2021-11-29T14:49:33',
    ( '' ),
    ( '' ),
    'SwSTEP 2.0',
    'SolidWorks 2019',
    '' );
FILE_SCHEMA (( 'CONFIG_CONTROL_DESIGN' ));
ENDSEC;

DATA;
#1 = UNCERTAINTY_MEASURE_WITH_UNIT (LENGTH_MEASURE( 1.000000000000000082E-05 ), #133, 'distance_accuracy_value', 'NONE');
#2 = ORIENTED_EDGE ( 'NONE', *, *, #166, .T. ) ;
#3 = FACE_OUTER_BOUND ( 'NONE', #150, .T. ) ;
#4 = EDGE_LOOP ( 'NONE', ( #57 ) ) ;
#5 = APPLICATION_CONTEXT ( 'configuration controlled 3d designs of mechanical parts and assemblies' ) ;
#6 = DIRECTION ( 'NONE',  ( 0.0000000000000000000, 1.000000000000000000, 0.0000000000000000000 ) ) ;
#7 = CARTESIAN_POINT ( 'NONE',  ( 6.260689839836381496E-14, -2.195954389763516575E-15, 17.93132837396403545 ) ) ;
#8 = CIRCLE ( 'NONE', #50, 0.4849999999999999312 ) ;
#9 = ADVANCED_FACE ( 'NONE', ( #146 ), #123, .F. ) ;
#10 = FACE_OUTER_BOUND ( 'NONE', #70, .T. ) ;
#11 = DIRECTION ( 'NONE',  ( -3.491481338843133355E-15, 1.224646799147352961E-16, -1.000000000000000000 ) ) ;
#12 = LOCAL_TIME ( 15, 49, 33.00000000000000000, #63 ) ;
#13 = PERSON_AND_ORGANIZATION ( #68, #100 ) ;
#14 = DIRECTION ( 'NONE',  ( 4.275831445896957731E-31, 1.000000000000000000, 1.224646799147353207E-16 ) ) ;
#15 = FACE_OUTER_BOUND ( 'NONE', #73, .T. ) ;
#16 = CALENDAR_DATE ( 2021, 29, 11 ) ;
#17 = VERTEX_POINT ( 'NONE', #20 ) ;
#18 = APPROVAL_DATE_TIME ( #299, #289 ) ;
#19 = CARTESIAN_POINT ( 'NONE',  ( 0.0000000000000000000, 0.0000000000000000000, 0.0000000000000000000 ) ) ;
#20 = CARTESIAN_POINT ( 'NONE',  ( 1.326762908760390423E-13, 1.199999999999998845, 38.00000000000000000 ) ) ;
#21 = EDGE_LOOP ( 'NONE', ( #255 ) ) ;
#22 = CC_DESIGN_SECURITY_CLASSIFICATION ( #163, ( #52 ) ) ;
#23 = AXIS2_PLACEMENT_3D ( 'NONE', #191, #286, #175 ) ;
#24 = DESIGN_CONTEXT ( 'detailed design', #40, 'design' ) ;
#25 = DIRECTION ( 'NONE',  ( -3.491481338843133355E-15, 1.224646799147352961E-16, -1.000000000000000000 ) ) ;
#26 = EDGE_LOOP ( 'NONE', ( #210 ) ) ;
#27 = CARTESIAN_POINT ( 'NONE',  ( 1.745740669421566678E-14, 4.413043160482504571E-33, 5.000000000000000000 ) ) ;
#28 = DIRECTION ( 'NONE',  ( -3.491481338843133355E-15, 1.224646799147352961E-16, -1.000000000000000000 ) ) ;
#29 = DIRECTION ( 'NONE',  ( -4.275831445896957731E-31, -1.000000000000000000, -1.224646799147352961E-16 ) ) ;
#30 = PRODUCT_DEFINITION ( 'UNKNOWN', '', #52, #24 ) ;
#31 = ORIENTED_EDGE ( 'NONE', *, *, #226, .F. ) ;
#32 = DIRECTION ( 'NONE',  ( -3.491481338843133355E-15, 1.224646799147352961E-16, -1.000000000000000000 ) ) ;
#33 = AXIS2_PLACEMENT_3D ( 'NONE', #266, #83, #195 ) ;
#34 = PLANE ( 'NONE',  #250 ) ;
#35 = APPROVAL_ROLE ( '' ) ;
#36 = DIRECTION ( 'NONE',  ( -4.275831445896957731E-31, -1.000000000000000000, -1.224646799147352961E-16 ) ) ;
#37 = AXIS2_PLACEMENT_3D ( 'NONE', #271, #64, #45 ) ;
#38 = PERSON_AND_ORGANIZATION_ROLE ( 'design_supplier' ) ;
#39 = VERTEX_POINT ( 'NONE', #118 ) ;
#40 = APPLICATION_CONTEXT ( 'configuration controlled 3d designs of mechanical parts and assemblies' ) ;
#41 = VERTEX_POINT ( 'NONE', #161 ) ;
#42 = PERSON_AND_ORGANIZATION_ROLE ( 'creator' ) ;
#43 = APPROVAL ( #200, 'UNSPECIFIED' ) ;
#44 = PERSON_AND_ORGANIZATION ( #68, #100 ) ;
#45 = DIRECTION ( 'NONE',  ( 0.0000000000000000000, 1.000000000000000000, 0.0000000000000000000 ) ) ;
#46 = APPROVAL_DATE_TIME ( #227, #43 ) ;
#47 = DIRECTION ( 'NONE',  ( 0.0000000000000000000, 0.0000000000000000000, 1.000000000000000000 ) ) ;
#48 = EDGE_CURVE ( 'NONE', #138, #138, #156, .T. ) ;
#49 = EDGE_LOOP ( 'NONE', ( #193 ) ) ;
#50 = AXIS2_PLACEMENT_3D ( 'NONE', #261, #244, #284 ) ;
#51 = DIRECTION ( 'NONE',  ( -3.491481338843133355E-15, 1.224646799147352961E-16, -1.000000000000000000 ) ) ;
#52 = PRODUCT_DEFINITION_FORMATION_WITH_SPECIFIED_SOURCE ( 'ANY', '', #104, .NOT_KNOWN. ) ;
#53 = FACE_OUTER_BOUND ( 'NONE', #119, .T. ) ;
#54 = CARTESIAN_POINT ( 'NONE',  ( 4.311035480981396413E-14, -1.512107695968337463E-15, 12.34729635533384773 ) ) ;
#55 = ADVANCED_FACE ( 'NONE', ( #10, #148 ), #242, .T. ) ;
#56 = DIRECTION ( 'NONE',  ( 3.491481338843133355E-15, -1.224646799147352961E-16, 1.000000000000000000 ) ) ;
#57 = ORIENTED_EDGE ( 'NONE', *, *, #226, .T. ) ;
#58 = CARTESIAN_POINT ( 'NONE',  ( 0.0000000000000000000, 0.0000000000000000000, 0.0000000000000000000 ) ) ;
#59 = EDGE_LOOP ( 'NONE', ( #31 ) ) ;
#60 = FACE_OUTER_BOUND ( 'NONE', #184, .T. ) ;
#61 = FACE_OUTER_BOUND ( 'NONE', #59, .T. ) ;
#62 = LOCAL_TIME ( 15, 49, 33.00000000000000000, #224 ) ;
#63 = COORDINATED_UNIVERSAL_TIME_OFFSET ( 1, 0, .AHEAD. ) ;
#64 = DIRECTION ( 'NONE',  ( -3.491481338843133355E-15, 1.224646799147352961E-16, -1.000000000000000000 ) ) ;
#65 = AXIS2_PLACEMENT_3D ( 'NONE', #241, #28, #6 ) ;
#66 = APPLICATION_PROTOCOL_DEFINITION ( 'international standard', 'config_control_design', 1994, #40 ) ;
#67 = EDGE_CURVE ( 'NONE', #165, #165, #167, .T. ) ;
#68 = PERSON ( 'UNSPECIFIED', 'UNSPECIFIED', 'UNSPECIFIED', ('UNSPECIFIED'), ('UNSPECIFIED'), ('UNSPECIFIED') ) ;
#69 = DIRECTION ( 'NONE',  ( 4.275831445896957731E-31, 1.000000000000000000, 1.224646799147352961E-16 ) ) ;
#70 = EDGE_LOOP ( 'NONE', ( #256 ) ) ;
#71 = CIRCLE ( 'NONE', #37, 0.4849999999999991540 ) ;
#72 = CC_DESIGN_PERSON_AND_ORGANIZATION_ASSIGNMENT ( #180, #38, ( #52 ) ) ;
#73 = EDGE_LOOP ( 'NONE', ( #209 ) ) ;
#74 = FACE_BOUND ( 'NONE', #21, .T. ) ;
#75 = ORIENTED_EDGE ( 'NONE', *, *, #67, .F. ) ;
#76 = EDGE_LOOP ( 'NONE', ( #164 ) ) ;
#77 = AXIS2_PLACEMENT_3D ( 'NONE', #174, #170, #122 ) ;
#78 = FACE_OUTER_BOUND ( 'NONE', #125, .T. ) ;
#79 = CARTESIAN_POINT ( 'NONE',  ( 0.0000000000000000000, 0.0000000000000000000, 0.0000000000000000000 ) ) ;
#80 = FACE_OUTER_BOUND ( 'NONE', #4, .T. ) ;
#81 = DIRECTION ( 'NONE',  ( -3.491481338843133355E-15, 1.224646799147352961E-16, -1.000000000000000000 ) ) ;
#82 =( GEOMETRIC_REPRESENTATION_CONTEXT ( 3 ) GLOBAL_UNCERTAINTY_ASSIGNED_CONTEXT ( ( #1 ) ) GLOBAL_UNIT_ASSIGNED_CONTEXT ( ( #133, #300, #159 ) ) REPRESENTATION_CONTEXT ( 'NONE', 'WORKASPACE' ) );
#83 = DIRECTION ( 'NONE',  ( -3.491481338843133355E-15, 1.224646799147352961E-16, -1.000000000000000000 ) ) ;
#84 = DATE_TIME_ROLE ( 'creation_date' ) ;
#85 = APPROVAL_ROLE ( '' ) ;
#86 = AXIS2_PLACEMENT_3D ( 'NONE', #58, #32, #127 ) ;
#87 = EDGE_CURVE ( 'NONE', #41, #41, #205, .T. ) ;
#88 = FACE_OUTER_BOUND ( 'NONE', #263, .T. ) ;
#89 = CIRCLE ( 'NONE', #188, 0.4441624327025950891 ) ;
#90 = DATE_AND_TIME ( #16, #154 ) ;
#91 = CARTESIAN_POINT ( 'NONE',  ( 0.0000000000000000000, 0.0000000000000000000, 0.0000000000000000000 ) ) ;
#92 = APPROVAL_STATUS ( 'not_yet_approved' ) ;
#93 = CC_DESIGN_PERSON_AND_ORGANIZATION_ASSIGNMENT ( #13, #267, ( #52 ) ) ;
#94 = CC_DESIGN_APPROVAL ( #43, ( #163 ) ) ;
#95 = ADVANCED_FACE ( 'NONE', ( #105 ), #34, .F. ) ;
#96 = EDGE_LOOP ( 'NONE', ( #75 ) ) ;
#97 = DIRECTION ( 'NONE',  ( -4.275831445896957731E-31, -1.000000000000000000, -1.224646799147352961E-16 ) ) ;
#98 = EDGE_CURVE ( 'NONE', #275, #275, #208, .T. ) ;
#99 = DIRECTION ( 'NONE',  ( -3.491481338843133355E-15, 1.224646799147352961E-16, -1.000000000000000000 ) ) ;
#100 = ORGANIZATION ( 'UNSPECIFIED', 'UNSPECIFIED', '' ) ;
#101 = FACE_BOUND ( 'NONE', #238, .T. ) ;
#102 = AXIS2_PLACEMENT_3D ( 'NONE', #7, #56, #282 ) ;
#103 = CARTESIAN_POINT ( 'NONE',  ( -3.791899523219009041E-31, 1.330019313618095337E-32, -1.086043187753486929E-16 ) ) ;
#104 = PRODUCT ( '956647', '956647', '', ( #136 ) ) ;
#105 = FACE_OUTER_BOUND ( 'NONE', #278, .T. ) ;
#106 = DIRECTION ( 'NONE',  ( 0.0000000000000000000, 1.000000000000000000, 0.0000000000000000000 ) ) ;
#107 = ADVANCED_FACE ( 'NONE', ( #74, #53 ), #179, .T. ) ;
#108 = AXIS2_PLACEMENT_3D ( 'NONE', #19, #47, #139 ) ;
#109 = COORDINATED_UNIVERSAL_TIME_OFFSET ( 1, 0, .AHEAD. ) ;
#110 = PERSON_AND_ORGANIZATION ( #68, #100 ) ;
#111 = CARTESIAN_POINT ( 'NONE',  ( 1.745740669421566678E-14, 0.5884999999999993570, 5.000000000000000000 ) ) ;
#112 = EDGE_CURVE ( 'NONE', #203, #203, #285, .T. ) ;
#113 = DIRECTION ( 'NONE',  ( -3.491481338843133355E-15, 1.224646799147352961E-16, -1.000000000000000000 ) ) ;
#114 = APPROVAL_PERSON_ORGANIZATION ( #253, #289, #155 ) ;
#115 = COORDINATED_UNIVERSAL_TIME_OFFSET ( 1, 0, .AHEAD. ) ;
#116 = DIRECTION ( 'NONE',  ( 0.0000000000000000000, 1.000000000000000000, 0.0000000000000000000 ) ) ;
#117 = CALENDAR_DATE ( 2021, 29, 11 ) ;
#118 = CARTESIAN_POINT ( 'NONE',  ( 1.808331498222511143E-14, 0.4849999999999984879, 5.179267258583382549 ) ) ;
#119 = EDGE_LOOP ( 'NONE', ( #2 ) ) ;
#120 = AXIS2_PLACEMENT_3D ( 'NONE', #262, #99, #243 ) ;
#121 = CONICAL_SURFACE ( 'NONE', #23, 1.200000000000003286, 0.7853981633974453924 ) ;
#122 = DIRECTION ( 'NONE',  ( 0.0000000000000000000, 1.000000000000000000, 0.0000000000000000000 ) ) ;
#123 = PLANE ( 'NONE',  #120 ) ;
#124 = EDGE_LOOP ( 'NONE', ( #283 ) ) ;
#125 = EDGE_LOOP ( 'NONE', ( #185 ) ) ;
#126 = AXIS2_PLACEMENT_3D ( 'NONE', #219, #11, #279 ) ;
#127 = DIRECTION ( 'NONE',  ( 4.275831445896957731E-31, 1.000000000000000000, 1.224646799147352961E-16 ) ) ;
#128 = ORIENTED_EDGE ( 'NONE', *, *, #98, .T. ) ;
#129 = FACE_BOUND ( 'NONE', #96, .T. ) ;
#130 = APPROVAL_PERSON_ORGANIZATION ( #44, #240, #35 ) ;
#131 = APPROVAL_STATUS ( 'not_yet_approved' ) ;
#132 = EDGE_CURVE ( 'NONE', #17, #17, #168, .T. ) ;
#133 =( LENGTH_UNIT ( ) NAMED_UNIT ( * ) SI_UNIT ( .MILLI., .METRE. ) );
#134 = CALENDAR_DATE ( 2021, 29, 11 ) ;
#135 = FACE_OUTER_BOUND ( 'NONE', #217, .T. ) ;
#136 = MECHANICAL_CONTEXT ( 'NONE', #5, 'mechanical' ) ;
#137 = PERSON_AND_ORGANIZATION ( #68, #100 ) ;
#138 = VERTEX_POINT ( 'NONE', #111 ) ;
#139 = DIRECTION ( 'NONE',  ( 1.000000000000000000, 0.0000000000000000000, 0.0000000000000000000 ) ) ;
#140 = ORIENTED_EDGE ( 'NONE', *, *, #132, .T. ) ;
#141 = AXIS2_PLACEMENT_3D ( 'NONE', #91, #113, #69 ) ;
#142 = ORIENTED_EDGE ( 'NONE', *, *, #245, .T. ) ;
#143 = DIRECTION ( 'NONE',  ( 0.0000000000000000000, 1.000000000000000000, 0.0000000000000000000 ) ) ;
#144 = LOCAL_TIME ( 15, 49, 33.00000000000000000, #222 ) ;
#145 = CONICAL_SURFACE ( 'NONE', #270, 0.4849999999999991540, 0.5235987755982938197 ) ;
#146 = FACE_OUTER_BOUND ( 'NONE', #26, .T. ) ;
#147 = DIRECTION ( 'NONE',  ( 0.0000000000000000000, 1.000000000000000000, 0.0000000000000000000 ) ) ;
#148 = FACE_OUTER_BOUND ( 'NONE', #233, .T. ) ;
#149 = CARTESIAN_POINT ( 'NONE',  ( 1.745740669421566678E-14, 4.413043160482504571E-33, 5.000000000000000000 ) ) ;
#150 = EDGE_LOOP ( 'NONE', ( #186 ) ) ;
#151 = DIRECTION ( 'NONE',  ( 3.491481338843133355E-15, -1.224646799147352961E-16, 1.000000000000000000 ) ) ;
#152 = ADVANCED_FACE ( 'NONE', ( #3, #101 ), #121, .T. ) ;
#153 = DIRECTION ( 'NONE',  ( -3.491481338843133355E-15, 1.224646799147352961E-16, -1.000000000000000000 ) ) ;
#154 = LOCAL_TIME ( 15, 49, 33.00000000000000000, #115 ) ;
#155 = APPROVAL_ROLE ( '' ) ;
#156 = CIRCLE ( 'NONE', #190, 0.5885000000000000231 ) ;
#157 = DIRECTION ( 'NONE',  ( -3.491481338843133355E-15, 1.224646799147352961E-16, -1.000000000000000000 ) ) ;
#158 = AXIS2_PLACEMENT_3D ( 'NONE', #259, #187, #143 ) ;
#159 =( NAMED_UNIT ( * ) SI_UNIT ( $, .STERADIAN. ) SOLID_ANGLE_UNIT ( ) );
#160 = DATE_AND_TIME ( #246, #62 ) ;
#161 = CARTESIAN_POINT ( 'NONE',  ( 1.745740669421566678E-14, 0.5884999999999993570, 5.000000000000000000 ) ) ;
#162 = CC_DESIGN_PERSON_AND_ORGANIZATION_ASSIGNMENT ( #110, #274, ( #104 ) ) ;
#163 = SECURITY_CLASSIFICATION ( '', '', #228 ) ;
#164 = ORIENTED_EDGE ( 'NONE', *, *, #265, .F. ) ;
#165 = VERTEX_POINT ( 'NONE', #206 ) ;
#166 = EDGE_CURVE ( 'NONE', #178, #178, #192, .T. ) ;
#167 = CIRCLE ( 'NONE', #236, 0.5153844939755811705 ) ;
#168 = CIRCLE ( 'NONE', #65, 1.200000000000003286 ) ;
#169 = DIRECTION ( 'NONE',  ( -3.272608231754015166E-31, -1.000000000000000000, -9.211573258160625322E-17 ) ) ;
#170 = DIRECTION ( 'NONE',  ( -3.491481338843133355E-15, 1.224646799147352961E-16, -1.000000000000000000 ) ) ;
#171 = DIRECTION ( 'NONE',  ( 4.275831445896957731E-31, 1.000000000000000000, 1.224646799147353207E-16 ) ) ;
#172 = ORIENTED_EDGE ( 'NONE', *, *, #67, .T. ) ;
#173 = CYLINDRICAL_SURFACE ( 'NONE', #86, 0.4849999999999995426 ) ;
#174 = CARTESIAN_POINT ( 'NONE',  ( 1.745740669421566678E-14, -6.123233995736765296E-16, 5.000000000000000000 ) ) ;
#175 = DIRECTION ( 'NONE',  ( 0.0000000000000000000, 1.000000000000000000, 0.0000000000000000000 ) ) ;
#176 = CARTESIAN_POINT ( 'NONE',  ( 1.808331498222511143E-14, -6.342773070152825588E-16, 5.179267258583382549 ) ) ;
#177 = AXIS2_PLACEMENT_3D ( 'NONE', #79, #81, #171 ) ;
#178 = VERTEX_POINT ( 'NONE', #248 ) ;
#179 = CONICAL_SURFACE ( 'NONE', #298, 0.5884999999999993570, 0.5235987755982922653 ) ;
#180 = PERSON_AND_ORGANIZATION ( #68, #100 ) ;
#181 = CARTESIAN_POINT ( 'NONE',  ( 6.260689839836381496E-14, 1.499999999999995559, 17.93132837396403545 ) ) ;
#182 = FACE_OUTER_BOUND ( 'NONE', #49, .T. ) ;
#183 = CC_DESIGN_APPROVAL ( #240, ( #52 ) ) ;
#184 = EDGE_LOOP ( 'NONE', ( #235 ) ) ;
#185 = ORIENTED_EDGE ( 'NONE', *, *, #48, .F. ) ;
#186 = ORIENTED_EDGE ( 'NONE', *, *, #112, .F. ) ;
#187 = DIRECTION ( 'NONE',  ( -3.491481338843133355E-15, 1.224646799147352961E-16, -1.000000000000000000 ) ) ;
#188 = AXIS2_PLACEMENT_3D ( 'NONE', #103, #290, #14 ) ;
#189 = CC_DESIGN_PERSON_AND_ORGANIZATION_ASSIGNMENT ( #137, #295, ( #163 ) ) ;
#190 = AXIS2_PLACEMENT_3D ( 'NONE', #288, #51, #106 ) ;
#191 = CARTESIAN_POINT ( 'NONE',  ( 1.326762908760390423E-13, -4.653657836759941152E-15, 38.00000000000000000 ) ) ;
#192 = CIRCLE ( 'NONE', #33, 0.5884999999999993570 ) ;
#193 = ORIENTED_EDGE ( 'NONE', *, *, #87, .F. ) ;
#194 = FACE_OUTER_BOUND ( 'NONE', #239, .T. ) ;
#195 = DIRECTION ( 'NONE',  ( 3.272608231754015166E-31, 1.000000000000000000, 9.211573258160625322E-17 ) ) ;
#196 = CC_DESIGN_DATE_AND_TIME_ASSIGNMENT ( #269, #207, ( #163 ) ) ;
#197 = PLANE ( 'NONE',  #218 ) ;
#198 = MANIFOLD_SOLID_BREP ( 'Corps-Déplacer/Copier1[1]', #249 ) ;
#199 = DIRECTION ( 'NONE',  ( 4.275831445896957731E-31, 1.000000000000000000, 1.224646799147352961E-16 ) ) ;
#200 = APPROVAL_STATUS ( 'not_yet_approved' ) ;
#201 = CYLINDRICAL_SURFACE ( 'NONE', #141, 0.5884999999999996900 ) ;
#202 = PRODUCT_DEFINITION_SHAPE ( 'NONE', 'NONE',  #30 ) ;
#203 = VERTEX_POINT ( 'NONE', #225 ) ;
#204 = ADVANCED_FACE ( 'NONE', ( #60 ), #291, .F. ) ;
#205 = CIRCLE ( 'NONE', #77, 0.5885000000000000231 ) ;
#206 = CARTESIAN_POINT ( 'NONE',  ( 4.311035480981396413E-14, 0.5153844939755796162, 12.34729635533384773 ) ) ;
#207 = DATE_TIME_ROLE ( 'classification_date' ) ;
#208 = CIRCLE ( 'NONE', #126, 1.499999999999997558 ) ;
#209 = ORIENTED_EDGE ( 'NONE', *, *, #48, .T. ) ;
#210 = ORIENTED_EDGE ( 'NONE', *, *, #132, .F. ) ;
#211 = LOCAL_TIME ( 15, 49, 33.00000000000000000, #109 ) ;
#212 = PRODUCT_RELATED_PRODUCT_CATEGORY ( 'detail', '', ( #104 ) ) ;
#213 = ORIENTED_EDGE ( 'NONE', *, *, #166, .F. ) ;
#214 = CARTESIAN_POINT ( 'NONE',  ( 8.728703347107831416E-16, -3.061616997868381785E-17, 0.2499999999999999445 ) ) ;
#215 = ADVANCED_FACE ( 'NONE', ( #129, #194 ), #237, .T. ) ;
#216 = ORIENTED_EDGE ( 'NONE', *, *, #112, .T. ) ;
#217 = EDGE_LOOP ( 'NONE', ( #213 ) ) ;
#218 = AXIS2_PLACEMENT_3D ( 'NONE', #149, #292, #29 ) ;
#219 = CARTESIAN_POINT ( 'NONE',  ( 6.260689839836381496E-14, -2.195954389763516575E-15, 17.93132837396403545 ) ) ;
#220 = APPROVAL_DATE_TIME ( #90, #240 ) ;
#221 = APPROVAL_PERSON_ORGANIZATION ( #301, #43, #85 ) ;
#222 = COORDINATED_UNIVERSAL_TIME_OFFSET ( 1, 0, .AHEAD. ) ;
#223 = CARTESIAN_POINT ( 'NONE',  ( 4.189777606611760026E-14, -1.301042606982605321E-15, 12.00000000000000000 ) ) ;
#224 = COORDINATED_UNIVERSAL_TIME_OFFSET ( 1, 0, .AHEAD. ) ;
#225 = CARTESIAN_POINT ( 'NONE',  ( 1.316288464743861212E-13, 1.499999999999998668, 37.69999999999999574 ) ) ;
#226 = EDGE_CURVE ( 'NONE', #273, #273, #8, .T. ) ;
#227 = DATE_AND_TIME ( #229, #12 ) ;
#228 = SECURITY_CLASSIFICATION_LEVEL ( 'unclassified' ) ;
#229 = CALENDAR_DATE ( 2021, 29, 11 ) ;
#230 = ADVANCED_BREP_SHAPE_REPRESENTATION ( '956647', ( #198, #302, #108 ), #82 ) ;
#231 = VERTEX_POINT ( 'NONE', #296 ) ;
#232 = ADVANCED_FACE ( 'NONE', ( #78 ), #197, .T. ) ;
#233 = EDGE_LOOP ( 'NONE', ( #216 ) ) ;
#234 = AXIS2_PLACEMENT_3D ( 'NONE', #223, #153, #199 ) ;
#235 = ORIENTED_EDGE ( 'NONE', *, *, #87, .T. ) ;
#236 = AXIS2_PLACEMENT_3D ( 'NONE', #54, #25, #147 ) ;
#237 = CONICAL_SURFACE ( 'NONE', #102, 1.499999999999997558, 0.1745329251994260922 ) ;
#238 = EDGE_LOOP ( 'NONE', ( #140 ) ) ;
#239 = EDGE_LOOP ( 'NONE', ( #128 ) ) ;
#240 = APPROVAL ( #92, 'UNSPECIFIED' ) ;
#241 = CARTESIAN_POINT ( 'NONE',  ( 1.326762908760390423E-13, -4.653657836759941152E-15, 38.00000000000000000 ) ) ;
#242 = CYLINDRICAL_SURFACE ( 'NONE', #177, 1.500000000000000444 ) ;
#243 = DIRECTION ( 'NONE',  ( 4.275831445896957731E-31, 1.000000000000000000, 1.224646799147352961E-16 ) ) ;
#244 = DIRECTION ( 'NONE',  ( -3.491481338843133355E-15, 1.224646799147352961E-16, -1.000000000000000000 ) ) ;
#245 = EDGE_CURVE ( 'NONE', #231, #231, #89, .T. ) ;
#246 = CALENDAR_DATE ( 2021, 29, 11 ) ;
#247 = PERSON_AND_ORGANIZATION ( #68, #100 ) ;
#248 = CARTESIAN_POINT ( 'NONE',  ( 8.728703347107833388E-16, 0.5884999999999993570, 0.2500000000000000000 ) ) ;
#249 = CLOSED_SHELL ( 'NONE', ( #204, #268, #258, #280, #215, #55, #152, #9 ) ) ;
#250 = AXIS2_PLACEMENT_3D ( 'NONE', #260, #264, #97 ) ;
#251 = CC_DESIGN_DATE_AND_TIME_ASSIGNMENT ( #160, #84, ( #30 ) ) ;
#252 = FACE_BOUND ( 'NONE', #124, .T. ) ;
#253 = PERSON_AND_ORGANIZATION ( #68, #100 ) ;
#254 = CARTESIAN_POINT ( 'NONE',  ( 4.189777606611760026E-14, 0.4849999999999984324, 12.00000000000000000 ) ) ;
#255 = ORIENTED_EDGE ( 'NONE', *, *, #245, .F. ) ;
#256 = ORIENTED_EDGE ( 'NONE', *, *, #98, .F. ) ;
#257 = CC_DESIGN_APPROVAL ( #289, ( #30 ) ) ;
#258 = ADVANCED_FACE ( 'NONE', ( #287, #80 ), #173, .T. ) ;
#259 = CARTESIAN_POINT ( 'NONE',  ( 1.316288464743861212E-13, -4.616918432785520292E-15, 37.69999999999999574 ) ) ;
#260 = CARTESIAN_POINT ( 'NONE',  ( -1.895949761609504520E-31, 6.650096568090476685E-33, -5.430215938767434643E-17 ) ) ;
#261 = CARTESIAN_POINT ( 'NONE',  ( 4.189777606611760026E-14, -1.469576158976823750E-15, 12.00000000000000000 ) ) ;
#262 = CARTESIAN_POINT ( 'NONE',  ( 1.326762908760390423E-13, 8.998558695971099120E-33, 38.00000000000000000 ) ) ;
#263 = EDGE_LOOP ( 'NONE', ( #172 ) ) ;
#264 = DIRECTION ( 'NONE',  ( 3.491481338843133355E-15, -1.224646799147352961E-16, 1.000000000000000000 ) ) ;
#265 = EDGE_CURVE ( 'NONE', #39, #39, #71, .T. ) ;
#266 = CARTESIAN_POINT ( 'NONE',  ( 8.728703347107831416E-16, -3.061616997868381785E-17, 0.2499999999999999445 ) ) ;
#267 = PERSON_AND_ORGANIZATION_ROLE ( 'creator' ) ;
#268 = ADVANCED_FACE ( 'NONE', ( #182, #252 ), #145, .T. ) ;
#269 = DATE_AND_TIME ( #117, #144 ) ;
#270 = AXIS2_PLACEMENT_3D ( 'NONE', #176, #157, #116 ) ;
#271 = CARTESIAN_POINT ( 'NONE',  ( 1.808331498222511143E-14, -6.342773070152825588E-16, 5.179267258583382549 ) ) ;
#272 = AXIS2_PLACEMENT_3D ( 'NONE', #27, #151, #36 ) ;
#273 = VERTEX_POINT ( 'NONE', #254 ) ;
#274 = PERSON_AND_ORGANIZATION_ROLE ( 'design_owner' ) ;
#275 = VERTEX_POINT ( 'NONE', #181 ) ;
#276 = SHAPE_DEFINITION_REPRESENTATION ( #202, #230 ) ;
#277 = TOROIDAL_SURFACE ( 'NONE', #234, 2.484999999999999876, 2.000000000000000000 ) ;
#278 = EDGE_LOOP ( 'NONE', ( #142 ) ) ;
#279 = DIRECTION ( 'NONE',  ( 0.0000000000000000000, 1.000000000000000000, 0.0000000000000000000 ) ) ;
#280 = ADVANCED_FACE ( 'NONE', ( #61, #88 ), #277, .F. ) ;
#281 = DIRECTION ( 'NONE',  ( 3.491481338843133355E-15, -1.224646799147352961E-16, 1.000000000000000000 ) ) ;
#282 = DIRECTION ( 'NONE',  ( 0.0000000000000000000, -1.000000000000000000, 0.0000000000000000000 ) ) ;
#283 = ORIENTED_EDGE ( 'NONE', *, *, #265, .T. ) ;
#284 = DIRECTION ( 'NONE',  ( 0.0000000000000000000, 1.000000000000000000, 0.0000000000000000000 ) ) ;
#285 = CIRCLE ( 'NONE', #158, 1.500000000000003331 ) ;
#286 = DIRECTION ( 'NONE',  ( -3.491481338843133355E-15, 1.224646799147352961E-16, -1.000000000000000000 ) ) ;
#287 = FACE_OUTER_BOUND ( 'NONE', #76, .T. ) ;
#288 = CARTESIAN_POINT ( 'NONE',  ( 1.745740669421566678E-14, -6.123233995736765296E-16, 5.000000000000000000 ) ) ;
#289 = APPROVAL ( #131, 'UNSPECIFIED' ) ;
#290 = DIRECTION ( 'NONE',  ( -3.491481338843133355E-15, 1.224646799147352961E-16, -1.000000000000000000 ) ) ;
#291 = PLANE ( 'NONE',  #272 ) ;
#292 = DIRECTION ( 'NONE',  ( 3.491481338843133355E-15, -1.224646799147352961E-16, 1.000000000000000000 ) ) ;
#293 = APPLICATION_PROTOCOL_DEFINITION ( 'international standard', 'config_control_design', 1994, #5 ) ;
#294 = ADVANCED_FACE ( 'NONE', ( #135, #15 ), #201, .T. ) ;
#295 = PERSON_AND_ORGANIZATION_ROLE ( 'classification_officer' ) ;
#296 = CARTESIAN_POINT ( 'NONE',  ( -1.892735826383161575E-31, 0.4441624327025950891, -5.421010862427522170E-17 ) ) ;
#297 = CLOSED_SHELL ( 'NONE', ( #95, #107, #294, #232 ) ) ;
#298 = AXIS2_PLACEMENT_3D ( 'NONE', #214, #281, #169 ) ;
#299 = DATE_AND_TIME ( #134, #211 ) ;
#300 =( NAMED_UNIT ( * ) PLANE_ANGLE_UNIT ( ) SI_UNIT ( $, .RADIAN. ) );
#301 = PERSON_AND_ORGANIZATION ( #68, #100 ) ;
#302 = MANIFOLD_SOLID_BREP ( 'Corps-Déplacer/Copier1[2]', #297 ) ;
#303 = CC_DESIGN_PERSON_AND_ORGANIZATION_ASSIGNMENT ( #247, #42, ( #30 ) ) ;
ENDSEC;
END-ISO-10303-21;
