ISO-10303-21;
HEADER;
FILE_DESCRIPTION (( 'STEP AP203' ),
    '1' );
FILE_NAME ('956316.step',
    '2021-11-10T07:14:43',
    ( '' ),
    ( '' ),
    'SwSTEP 2.0',
    'SolidWorks 2019',
    '' );
FILE_SCHEMA (( 'CONFIG_CONTROL_DESIGN' ));
ENDSEC;

DATA;
#1 = COORDINATED_UNIVERSAL_TIME_OFFSET ( 1, 0, .AHEAD. ) ;
#2 = AXIS2_PLACEMENT_3D ( 'NONE', #217, #69, #180 ) ;
#3 = EDGE_LOOP ( 'NONE', ( #41 ) ) ;
#4 = DIRECTION ( 'NONE',  ( 1.000000000000000000, 0.0000000000000000000, -3.384209611120016325E-15 ) ) ;
#5 = FACE_OUTER_BOUND ( 'NONE', #3, .T. ) ;
#6 = CIRCLE ( 'NONE', #222, 1.499999999999996225 ) ;
#7 = VERTEX_POINT ( 'NONE', #81 ) ;
#8 = DIRECTION ( 'NONE',  ( 3.491481338843133355E-15, -0.0000000000000000000, 1.000000000000000000 ) ) ;
#9 = CIRCLE ( 'NONE', #25, 0.05999999999999929001 ) ;
#10 = DIRECTION ( 'NONE',  ( 3.491481338843133355E-15, -1.224646799147353207E-16, 1.000000000000000000 ) ) ;
#11 = CARTESIAN_POINT ( 'NONE',  ( 2.010205771808587903E-14, 0.0000000000000000000, 5.757458158074100218 ) ) ;
#12 = DIRECTION ( 'NONE',  ( 1.000000000000000000, 0.0000000000000000000, -3.469446951953622866E-15 ) ) ;
#13 = AXIS2_PLACEMENT_3D ( 'NONE', #219, #47, #140 ) ;
#14 = CALENDAR_DATE ( 2021, 10, 11 ) ;
#15 = APPLICATION_CONTEXT ( 'configuration controlled 3d designs of mechanical parts and assemblies' ) ;
#16 = AXIS2_PLACEMENT_3D ( 'NONE', #162, #10, #67 ) ;
#17 = APPROVAL_DATE_TIME ( #167, #76 ) ;
#18 = PERSON_AND_ORGANIZATION ( #117, #125 ) ;
#19 = CARTESIAN_POINT ( 'NONE',  ( 4.189777606611767816E-16, 1.124819836996388690E-32, 0.1200000000000002176 ) ) ;
#20 = ORIENTED_EDGE ( 'NONE', *, *, #56, .T. ) ;
#21 = ORIENTED_EDGE ( 'NONE', *, *, #144, .F. ) ;
#22 = FACE_BOUND ( 'NONE', #42, .T. ) ;
#23 = ADVANCED_FACE ( 'NONE', ( #174 ), #63, .T. ) ;
#24 = CLOSED_SHELL ( 'NONE', ( #119, #46, #172, #238, #62, #70 ) ) ;
#25 = AXIS2_PLACEMENT_3D ( 'NONE', #27, #163, #82 ) ;
#26 = CARTESIAN_POINT ( 'NONE',  ( 0.05999999999999971328, 0.0000000000000000000, 0.1200000000000001066 ) ) ;
#27 = CARTESIAN_POINT ( 'NONE',  ( 4.189777606611770775E-16, 0.0000000000000000000, 0.1200000000000003147 ) ) ;
#28 = CARTESIAN_POINT ( 'NONE',  ( 0.1281483474218610974, 0.0000000000000000000, 0.6376380902050265975 ) ) ;
#29 = CIRCLE ( 'NONE', #141, 0.1281483474218588769 ) ;
#30 = FACE_OUTER_BOUND ( 'NONE', #112, .T. ) ;
#31 = FACE_OUTER_BOUND ( 'NONE', #213, .T. ) ;
#32 = CC_DESIGN_PERSON_AND_ORGANIZATION_ASSIGNMENT ( #90, #209, ( #221 ) ) ;
#33 = APPROVAL_STATUS ( 'not_yet_approved' ) ;
#34 = CIRCLE ( 'NONE', #2, 0.05999999999999972022 ) ;
#35 = COORDINATED_UNIVERSAL_TIME_OFFSET ( 1, 0, .AHEAD. ) ;
#36 =( LENGTH_UNIT ( ) NAMED_UNIT ( * ) SI_UNIT ( .MILLI., .METRE. ) );
#37 = MECHANICAL_CONTEXT ( 'NONE', #218, 'mechanical' ) ;
#38 = CC_DESIGN_APPROVAL ( #166, ( #53 ) ) ;
#39 = PERSON_AND_ORGANIZATION ( #117, #125 ) ;
#40 = DIRECTION ( 'NONE',  ( -3.491481338843133355E-15, 1.224646799147353207E-16, -1.000000000000000000 ) ) ;
#41 = ORIENTED_EDGE ( 'NONE', *, *, #148, .T. ) ;
#42 = EDGE_LOOP ( 'NONE', ( #115 ) ) ;
#43 = ORIENTED_EDGE ( 'NONE', *, *, #123, .T. ) ;
#44 = VERTEX_POINT ( 'NONE', #120 ) ;
#45 = CARTESIAN_POINT ( 'NONE',  ( 1.326762908760390423E-13, 8.998558695971069014E-33, 38.00000000000000000 ) ) ;
#46 = ADVANCED_FACE ( 'NONE', ( #135, #22 ), #61, .T. ) ;
#47 = DIRECTION ( 'NONE',  ( 3.491481338843133355E-15, -0.0000000000000000000, 1.000000000000000000 ) ) ;
#48 = CYLINDRICAL_SURFACE ( 'NONE', #212, 1.499999999999996225 ) ;
#49 = LOCAL_TIME ( 8, 14, 43.00000000000000000, #1 ) ;
#50 = DIRECTION ( 'NONE',  ( -3.491481338843133355E-15, 1.224646799147353207E-16, -1.000000000000000000 ) ) ;
#51 = ADVANCED_FACE ( 'NONE', ( #5, #93 ), #158, .T. ) ;
#52 = PERSON_AND_ORGANIZATION_ROLE ( 'creator' ) ;
#53 = SECURITY_CLASSIFICATION ( '', '', #206 ) ;
#54 = APPROVAL_ROLE ( '' ) ;
#55 = PERSON_AND_ORGANIZATION ( #117, #125 ) ;
#56 = EDGE_CURVE ( 'NONE', #64, #64, #29, .T. ) ;
#57 = DATE_AND_TIME ( #108, #134 ) ;
#58 = EDGE_CURVE ( 'NONE', #164, #164, #201, .T. ) ;
#59 = CARTESIAN_POINT ( 'NONE',  ( 2.226301492886426309E-15, 0.0000000000000000000, 0.6376380902050269306 ) ) ;
#60 = EDGE_LOOP ( 'NONE', ( #20 ) ) ;
#61 = CONICAL_SURFACE ( 'NONE', #114, 1.199999999999998845, 0.7853981633974450594 ) ;
#62 = ADVANCED_FACE ( 'NONE', ( #197, #184 ), #73, .T. ) ;
#63 = PLANE ( 'NONE',  #106 ) ;
#64 = VERTEX_POINT ( 'NONE', #28 ) ;
#65 = PLANE ( 'NONE',  #16 ) ;
#66 = PRODUCT_DEFINITION ( 'UNKNOWN', '', #221, #181 ) ;
#67 = DIRECTION ( 'NONE',  ( -4.275831445896958607E-31, -1.000000000000000000, -1.224646799147353207E-16 ) ) ;
#68 = CARTESIAN_POINT ( 'NONE',  ( 1.326762908760390423E-13, -4.653657836759941941E-15, 38.00000000000000000 ) ) ;
#69 = DIRECTION ( 'NONE',  ( 3.491481338843133355E-15, -0.0000000000000000000, 1.000000000000000000 ) ) ;
#70 = ADVANCED_FACE ( 'NONE', ( #100 ), #65, .F. ) ;
#71 = MANIFOLD_SOLID_BREP ( 'Corps-Déplacer/Copier1[1]', #24 ) ;
#72 = DIRECTION ( 'NONE',  ( 1.000000000000000000, 0.0000000000000000000, 0.0000000000000000000 ) ) ;
#73 = CONICAL_SURFACE ( 'NONE', #182, 1.499999999999996225, 0.2617993877991427465 ) ;
#74 =( NAMED_UNIT ( * ) SI_UNIT ( $, .STERADIAN. ) SOLID_ANGLE_UNIT ( ) );
#75 = ORIENTED_EDGE ( 'NONE', *, *, #144, .T. ) ;
#76 = APPROVAL ( #208, 'UNSPECIFIED' ) ;
#77 = DIRECTION ( 'NONE',  ( -4.275831445896958607E-31, -1.000000000000000000, -1.224646799147353207E-16 ) ) ;
#78 = CC_DESIGN_APPROVAL ( #198, ( #66 ) ) ;
#79 = EDGE_LOOP ( 'NONE', ( #113 ) ) ;
#80 = ORIENTED_EDGE ( 'NONE', *, *, #58, .T. ) ;
#81 = CARTESIAN_POINT ( 'NONE',  ( 0.05999999999999971328, 0.0000000000000000000, 0.1200000000000001066 ) ) ;
#82 = DIRECTION ( 'NONE',  ( 1.000000000000000000, 0.0000000000000000000, -3.388131789017241588E-15 ) ) ;
#83 = VERTEX_POINT ( 'NONE', #179 ) ;
#84 = DIRECTION ( 'NONE',  ( -4.275831445896958607E-31, -1.000000000000000000, -1.224646799147353207E-16 ) ) ;
#85 = DIRECTION ( 'NONE',  ( -3.491481338843133355E-15, 1.224646799147353207E-16, -1.000000000000000000 ) ) ;
#86 = APPROVAL_PERSON_ORGANIZATION ( #107, #76, #226 ) ;
#87 =( NAMED_UNIT ( * ) PLANE_ANGLE_UNIT ( ) SI_UNIT ( $, .RADIAN. ) );
#88 = PERSON_AND_ORGANIZATION ( #117, #125 ) ;
#89 = AXIS2_PLACEMENT_3D ( 'NONE', #147, #50, #103 ) ;
#90 = PERSON_AND_ORGANIZATION ( #117, #125 ) ;
#91 = PERSON_AND_ORGANIZATION ( #117, #125 ) ;
#92 = EDGE_CURVE ( 'NONE', #101, #101, #210, .T. ) ;
#93 = FACE_OUTER_BOUND ( 'NONE', #161, .T. ) ;
#94 = AXIS2_PLACEMENT_3D ( 'NONE', #186, #224, #72 ) ;
#95 = ORIENTED_EDGE ( 'NONE', *, *, #188, .F. ) ;
#96 = EDGE_LOOP ( 'NONE', ( #139 ) ) ;
#97 = CC_DESIGN_PERSON_AND_ORGANIZATION_ASSIGNMENT ( #39, #130, ( #221 ) ) ;
#98 = ORIENTED_EDGE ( 'NONE', *, *, #123, .F. ) ;
#99 = DIRECTION ( 'NONE',  ( 3.491481338843133355E-15, -0.0000000000000000000, 1.000000000000000000 ) ) ;
#100 = FACE_OUTER_BOUND ( 'NONE', #214, .T. ) ;
#101 = VERTEX_POINT ( 'NONE', #215 ) ;
#102 = AXIS2_PLACEMENT_3D ( 'NONE', #165, #8, #240 ) ;
#103 = DIRECTION ( 'NONE',  ( 0.0000000000000000000, 1.000000000000000000, 0.0000000000000000000 ) ) ;
#104 = DIRECTION ( 'NONE',  ( 4.275831445896958607E-31, 1.000000000000000000, 1.224646799147353207E-16 ) ) ;
#105 = APPROVAL_ROLE ( '' ) ;
#106 = AXIS2_PLACEMENT_3D ( 'NONE', #19, #234, #77 ) ;
#107 = PERSON_AND_ORGANIZATION ( #117, #125 ) ;
#108 = CALENDAR_DATE ( 2021, 10, 11 ) ;
#109 = LOCAL_TIME ( 8, 14, 43.00000000000000000, #35 ) ;
#110 = ADVANCED_FACE ( 'NONE', ( #185 ), #235, .F. ) ;
#111 = COORDINATED_UNIVERSAL_TIME_OFFSET ( 1, 0, .AHEAD. ) ;
#112 = EDGE_LOOP ( 'NONE', ( #80 ) ) ;
#113 = ORIENTED_EDGE ( 'NONE', *, *, #188, .T. ) ;
#114 = AXIS2_PLACEMENT_3D ( 'NONE', #211, #40, #192 ) ;
#115 = ORIENTED_EDGE ( 'NONE', *, *, #92, .T. ) ;
#116 = EDGE_LOOP ( 'NONE', ( #194 ) ) ;
#117 = PERSON ( 'UNSPECIFIED', 'UNSPECIFIED', 'UNSPECIFIED', ('UNSPECIFIED'), ('UNSPECIFIED'), ('UNSPECIFIED') ) ;
#118 = MANIFOLD_SOLID_BREP ( 'Corps-Déplacer/Copier1[2]', #133 ) ;
#119 = ADVANCED_FACE ( 'NONE', ( #30, #220 ), #48, .T. ) ;
#120 = CARTESIAN_POINT ( 'NONE',  ( 1.500000000000016209, 0.0000000000000000000, 5.757458158074094889 ) ) ;
#121 = DIRECTION ( 'NONE',  ( 1.000000000000000000, 0.0000000000000000000, -3.469446951953622866E-15 ) ) ;
#122 = CARTESIAN_POINT ( 'NONE',  ( 1.316288464743861212E-13, 1.499999999999994005, 37.69999999999999574 ) ) ;
#123 = EDGE_CURVE ( 'NONE', #44, #44, #6, .T. ) ;
#124 = CARTESIAN_POINT ( 'NONE',  ( 0.0000000000000000000, 0.0000000000000000000, 0.0000000000000000000 ) ) ;
#125 = ORGANIZATION ( 'UNSPECIFIED', 'UNSPECIFIED', '' ) ;
#126 = UNCERTAINTY_MEASURE_WITH_UNIT (LENGTH_MEASURE( 1.000000000000000082E-05 ), #36, 'distance_accuracy_value', 'NONE');
#127 = DIRECTION ( 'NONE',  ( -3.491481338843133355E-15, 1.224646799147353207E-16, -1.000000000000000000 ) ) ;
#128 = APPLICATION_PROTOCOL_DEFINITION ( 'international standard', 'config_control_design', 1994, #15 ) ;
#129 = COORDINATED_UNIVERSAL_TIME_OFFSET ( 1, 0, .AHEAD. ) ;
#130 = PERSON_AND_ORGANIZATION_ROLE ( 'design_supplier' ) ;
#131 = COORDINATED_UNIVERSAL_TIME_OFFSET ( 1, 0, .AHEAD. ) ;
#132 = CC_DESIGN_PERSON_AND_ORGANIZATION_ASSIGNMENT ( #152, #149, ( #153 ) ) ;
#133 = CLOSED_SHELL ( 'NONE', ( #23, #51, #110 ) ) ;
#134 = LOCAL_TIME ( 8, 14, 43.00000000000000000, #131 ) ;
#135 = FACE_OUTER_BOUND ( 'NONE', #96, .T. ) ;
#136 = DIRECTION ( 'NONE',  ( 3.491481338843133355E-15, -0.0000000000000000000, 1.000000000000000000 ) ) ;
#137 = ADVANCED_BREP_SHAPE_REPRESENTATION ( '956316', ( #71, #118, #94 ), #146 ) ;
#138 = LOCAL_TIME ( 8, 14, 43.00000000000000000, #111 ) ;
#139 = ORIENTED_EDGE ( 'NONE', *, *, #58, .F. ) ;
#140 = DIRECTION ( 'NONE',  ( 1.000000000000000000, 0.0000000000000000000, -3.491481338843133355E-15 ) ) ;
#141 = AXIS2_PLACEMENT_3D ( 'NONE', #59, #136, #4 ) ;
#142 = DIRECTION ( 'NONE',  ( 3.491481338843133355E-15, -1.224646799147353207E-16, 1.000000000000000000 ) ) ;
#143 = CARTESIAN_POINT ( 'NONE',  ( -6.413803915257457113E-31, 2.249659577954772199E-32, -1.836986451539393076E-16 ) ) ;
#144 = EDGE_CURVE ( 'NONE', #183, #183, #173, .T. ) ;
#145 = DIRECTION ( 'NONE',  ( -3.491481338843133355E-15, 1.224646799147353207E-16, -1.000000000000000000 ) ) ;
#146 =( GEOMETRIC_REPRESENTATION_CONTEXT ( 3 ) GLOBAL_UNCERTAINTY_ASSIGNED_CONTEXT ( ( #126 ) ) GLOBAL_UNIT_ASSIGNED_CONTEXT ( ( #36, #87, #74 ) ) REPRESENTATION_CONTEXT ( 'NONE', 'WORKASPACE' ) );
#147 = CARTESIAN_POINT ( 'NONE',  ( 1.316288464743861212E-13, -4.616918432785521081E-15, 37.69999999999999574 ) ) ;
#148 = EDGE_CURVE ( 'NONE', #83, #83, #34, .T. ) ;
#149 = PERSON_AND_ORGANIZATION_ROLE ( 'design_owner' ) ;
#150 = PERSON_AND_ORGANIZATION_ROLE ( 'classification_officer' ) ;
#151 = AXIS2_PLACEMENT_3D ( 'NONE', #143, #142, #84 ) ;
#152 = PERSON_AND_ORGANIZATION ( #117, #125 ) ;
#153 = PRODUCT ( '956316', '956316', '', ( #37 ) ) ;
#154 = CALENDAR_DATE ( 2021, 10, 11 ) ;
#155 = DIRECTION ( 'NONE',  ( 1.000000000000000000, 0.0000000000000000000, -3.491481338843133355E-15 ) ) ;
#156 = CC_DESIGN_DATE_AND_TIME_ASSIGNMENT ( #57, #242, ( #66 ) ) ;
#157 = ORIENTED_EDGE ( 'NONE', *, *, #148, .F. ) ;
#158 = CYLINDRICAL_SURFACE ( 'NONE', #190, 0.05999999999999950512 ) ;
#159 = TOROIDAL_SURFACE ( 'NONE', #13, 2.059999999999998721, 1.999999999999999556 ) ;
#160 = EDGE_LOOP ( 'NONE', ( #98 ) ) ;
#161 = EDGE_LOOP ( 'NONE', ( #21 ) ) ;
#162 = CARTESIAN_POINT ( 'NONE',  ( 4.189777606611767816E-16, 1.124819836996388690E-32, 0.1200000000000002176 ) ) ;
#163 = DIRECTION ( 'NONE',  ( 3.491481338843133355E-15, -0.0000000000000000000, 1.000000000000000000 ) ) ;
#164 = VERTEX_POINT ( 'NONE', #122 ) ;
#165 = CARTESIAN_POINT ( 'NONE',  ( 4.189777606611770775E-16, 0.0000000000000000000, 0.1200000000000003147 ) ) ;
#166 = APPROVAL ( #33, 'UNSPECIFIED' ) ;
#167 = DATE_AND_TIME ( #189, #196 ) ;
#168 = APPROVAL_STATUS ( 'not_yet_approved' ) ;
#169 = APPROVAL_PERSON_ORGANIZATION ( #18, #166, #105 ) ;
#170 = PRODUCT_DEFINITION_SHAPE ( 'NONE', 'NONE',  #66 ) ;
#171 = APPROVAL_DATE_TIME ( #225, #166 ) ;
#172 = ADVANCED_FACE ( 'NONE', ( #237 ), #199, .F. ) ;
#173 = CIRCLE ( 'NONE', #102, 0.05999999999999929001 ) ;
#174 = FACE_OUTER_BOUND ( 'NONE', #229, .T. ) ;
#175 = PRODUCT_RELATED_PRODUCT_CATEGORY ( 'detail', '', ( #153 ) ) ;
#176 = SHAPE_DEFINITION_REPRESENTATION ( #170, #137 ) ;
#177 = CC_DESIGN_SECURITY_CLASSIFICATION ( #53, ( #221 ) ) ;
#178 = ORIENTED_EDGE ( 'NONE', *, *, #56, .F. ) ;
#179 = CARTESIAN_POINT ( 'NONE',  ( 0.05999999999999972022, 0.0000000000000000000, -2.094888803305870350E-16 ) ) ;
#180 = DIRECTION ( 'NONE',  ( 1.000000000000000000, 0.0000000000000000000, -3.491481338843133355E-15 ) ) ;
#181 = DESIGN_CONTEXT ( 'detailed design', #15, 'design' ) ;
#182 = AXIS2_PLACEMENT_3D ( 'NONE', #11, #239, #12 ) ;
#183 = VERTEX_POINT ( 'NONE', #26 ) ;
#184 = FACE_OUTER_BOUND ( 'NONE', #160, .T. ) ;
#185 = FACE_OUTER_BOUND ( 'NONE', #195, .T. ) ;
#186 = CARTESIAN_POINT ( 'NONE',  ( 0.0000000000000000000, 0.0000000000000000000, 0.0000000000000000000 ) ) ;
#187 = DATE_TIME_ROLE ( 'classification_date' ) ;
#188 = EDGE_CURVE ( 'NONE', #7, #7, #9, .T. ) ;
#189 = CALENDAR_DATE ( 2021, 10, 11 ) ;
#190 = AXIS2_PLACEMENT_3D ( 'NONE', #231, #193, #155 ) ;
#191 = DATE_AND_TIME ( #205, #138 ) ;
#192 = DIRECTION ( 'NONE',  ( 0.0000000000000000000, 1.000000000000000000, 0.0000000000000000000 ) ) ;
#193 = DIRECTION ( 'NONE',  ( 3.491481338843133355E-15, -0.0000000000000000000, 1.000000000000000000 ) ) ;
#194 = ORIENTED_EDGE ( 'NONE', *, *, #92, .F. ) ;
#195 = EDGE_LOOP ( 'NONE', ( #157 ) ) ;
#196 = LOCAL_TIME ( 8, 14, 43.00000000000000000, #129 ) ;
#197 = FACE_BOUND ( 'NONE', #60, .T. ) ;
#198 = APPROVAL ( #168, 'UNSPECIFIED' ) ;
#199 = PLANE ( 'NONE',  #241 ) ;
#200 = FACE_OUTER_BOUND ( 'NONE', #79, .T. ) ;
#201 = CIRCLE ( 'NONE', #89, 1.499999999999998446 ) ;
#202 = CARTESIAN_POINT ( 'NONE',  ( 2.010205771808587903E-14, 0.0000000000000000000, 5.757458158074100218 ) ) ;
#203 = DIRECTION ( 'NONE',  ( 4.275831445896958607E-31, 1.000000000000000000, 1.224646799147353207E-16 ) ) ;
#204 = DATE_AND_TIME ( #154, #49 ) ;
#205 = CALENDAR_DATE ( 2021, 10, 11 ) ;
#206 = SECURITY_CLASSIFICATION_LEVEL ( 'unclassified' ) ;
#207 = CC_DESIGN_DATE_AND_TIME_ASSIGNMENT ( #191, #187, ( #53 ) ) ;
#208 = APPROVAL_STATUS ( 'not_yet_approved' ) ;
#209 = PERSON_AND_ORGANIZATION_ROLE ( 'creator' ) ;
#210 = CIRCLE ( 'NONE', #232, 1.199999999999998845 ) ;
#211 = CARTESIAN_POINT ( 'NONE',  ( 1.326762908760390423E-13, -4.653657836759941941E-15, 38.00000000000000000 ) ) ;
#212 = AXIS2_PLACEMENT_3D ( 'NONE', #124, #85, #104 ) ;
#213 = EDGE_LOOP ( 'NONE', ( #178 ) ) ;
#214 = EDGE_LOOP ( 'NONE', ( #95 ) ) ;
#215 = CARTESIAN_POINT ( 'NONE',  ( 1.326762908760390423E-13, 1.199999999999994182, 38.00000000000000000 ) ) ;
#216 = CC_DESIGN_PERSON_AND_ORGANIZATION_ASSIGNMENT ( #91, #150, ( #53 ) ) ;
#217 = CARTESIAN_POINT ( 'NONE',  ( 0.0000000000000000000, 0.0000000000000000000, 0.0000000000000000000 ) ) ;
#218 = APPLICATION_CONTEXT ( 'configuration controlled 3d designs of mechanical parts and assemblies' ) ;
#219 = CARTESIAN_POINT ( 'NONE',  ( 4.189777606611770775E-16, 0.0000000000000000000, 0.1200000000000003147 ) ) ;
#220 = FACE_OUTER_BOUND ( 'NONE', #233, .T. ) ;
#221 = PRODUCT_DEFINITION_FORMATION_WITH_SPECIFIED_SOURCE ( 'ANY', '', #153, .NOT_KNOWN. ) ;
#222 = AXIS2_PLACEMENT_3D ( 'NONE', #202, #99, #121 ) ;
#223 = DIRECTION ( 'NONE',  ( 0.0000000000000000000, 1.000000000000000000, 0.0000000000000000000 ) ) ;
#224 = DIRECTION ( 'NONE',  ( 0.0000000000000000000, 0.0000000000000000000, 1.000000000000000000 ) ) ;
#225 = DATE_AND_TIME ( #14, #109 ) ;
#226 = APPROVAL_ROLE ( '' ) ;
#227 = APPROVAL_DATE_TIME ( #204, #198 ) ;
#228 = CC_DESIGN_APPROVAL ( #76, ( #221 ) ) ;
#229 = EDGE_LOOP ( 'NONE', ( #75 ) ) ;
#230 = CC_DESIGN_PERSON_AND_ORGANIZATION_ASSIGNMENT ( #55, #52, ( #66 ) ) ;
#231 = CARTESIAN_POINT ( 'NONE',  ( -1.786038389295302186E-30, 0.0000000000000000000, -5.115417256925931626E-16 ) ) ;
#232 = AXIS2_PLACEMENT_3D ( 'NONE', #68, #145, #223 ) ;
#233 = EDGE_LOOP ( 'NONE', ( #43 ) ) ;
#234 = DIRECTION ( 'NONE',  ( 3.491481338843133355E-15, -1.224646799147353207E-16, 1.000000000000000000 ) ) ;
#235 = PLANE ( 'NONE',  #151 ) ;
#236 = APPROVAL_PERSON_ORGANIZATION ( #88, #198, #54 ) ;
#237 = FACE_OUTER_BOUND ( 'NONE', #116, .T. ) ;
#238 = ADVANCED_FACE ( 'NONE', ( #200, #31 ), #159, .F. ) ;
#239 = DIRECTION ( 'NONE',  ( 3.491481338843133355E-15, -0.0000000000000000000, 1.000000000000000000 ) ) ;
#240 = DIRECTION ( 'NONE',  ( 1.000000000000000000, 0.0000000000000000000, -3.388131789017241588E-15 ) ) ;
#241 = AXIS2_PLACEMENT_3D ( 'NONE', #45, #127, #203 ) ;
#242 = DATE_TIME_ROLE ( 'creation_date' ) ;
#243 = APPLICATION_PROTOCOL_DEFINITION ( 'international standard', 'config_control_design', 1994, #218 ) ;
ENDSEC;
END-ISO-10303-21;
