ISO-10303-21;
HEADER;
FILE_DESCRIPTION (( 'STEP AP203' ),
    '1' );
FILE_NAME ('956298.step',
    '2021-11-30T06:45:10',
    ( '' ),
    ( '' ),
    'SwSTEP 2.0',
    'SolidWorks 2019',
    '' );
FILE_SCHEMA (( 'CONFIG_CONTROL_DESIGN' ));
ENDSEC;

DATA;
#1 = CIRCLE ( 'NONE', #209, 1.500000000000001554 ) ;
#2 = EDGE_LOOP ( 'NONE', ( #159 ) ) ;
#3 = EDGE_LOOP ( 'NONE', ( #21 ) ) ;
#4 = EDGE_CURVE ( 'NONE', #62, #62, #22, .T. ) ;
#5 = CC_DESIGN_SECURITY_CLASSIFICATION ( #93, ( #286 ) ) ;
#6 = DIRECTION ( 'NONE',  ( -3.491481338843133355E-15, 1.224646799147353207E-16, -1.000000000000000000 ) ) ;
#7 = PERSON_AND_ORGANIZATION ( #279, #271 ) ;
#8 = CARTESIAN_POINT ( 'NONE',  ( 8.728703347107829444E-16, -3.061616997868381785E-17, 0.2499999999999998890 ) ) ;
#9 = DIRECTION ( 'NONE',  ( -3.491481338843133355E-15, 1.224646799147353207E-16, -1.000000000000000000 ) ) ;
#10 = DIRECTION ( 'NONE',  ( 1.000000000000000000, 0.0000000000000000000, 0.0000000000000000000 ) ) ;
#11 = CARTESIAN_POINT ( 'NONE',  ( 7.104220552055900573E-14, -2.491825135286219437E-15, 20.34729635533384240 ) ) ;
#12 = DATE_TIME_ROLE ( 'classification_date' ) ;
#13 = CARTESIAN_POINT ( 'NONE',  ( 3.491481338843133355E-14, 1.173499999999993992, 10.00000000000000000 ) ) ;
#14 = DATE_AND_TIME ( #146, #120 ) ;
#15 = VERTEX_POINT ( 'NONE', #13 ) ;
#16 = EDGE_CURVE ( 'NONE', #221, #221, #1, .T. ) ;
#17 = VERTEX_POINT ( 'NONE', #89 ) ;
#18 = CONICAL_SURFACE ( 'NONE', #153, 1.019999999999999130, 0.5235987755982913772 ) ;
#19 = EDGE_LOOP ( 'NONE', ( #187 ) ) ;
#20 = APPROVAL ( #210, 'UNSPECIFIED' ) ;
#21 = ORIENTED_EDGE ( 'NONE', *, *, #4, .T. ) ;
#22 = CIRCLE ( 'NONE', #189, 1.029162432702589669 ) ;
#23 = DIRECTION ( 'NONE',  ( 4.275831445896958607E-31, 1.000000000000000000, 1.224646799147352961E-16 ) ) ;
#24 = DIRECTION ( 'NONE',  ( -3.491481338843133355E-15, 1.224646799147353207E-16, -1.000000000000000000 ) ) ;
#25 = ORIENTED_EDGE ( 'NONE', *, *, #70, .T. ) ;
#26 = PLANE ( 'NONE',  #240 ) ;
#27 = AXIS2_PLACEMENT_3D ( 'NONE', #154, #86, #268 ) ;
#28 = CARTESIAN_POINT ( 'NONE',  ( 6.982962677686266711E-14, -2.602085213965210642E-15, 20.00000000000000000 ) ) ;
#29 = DIRECTION ( 'NONE',  ( -3.491481338843133355E-15, 1.224646799147353207E-16, -1.000000000000000000 ) ) ;
#30 = APPROVAL_DATE_TIME ( #76, #44 ) ;
#31 = CYLINDRICAL_SURFACE ( 'NONE', #267, 1.019999999999999574 ) ;
#32 = COORDINATED_UNIVERSAL_TIME_OFFSET ( 1, 0, .AHEAD. ) ;
#33 = LOCAL_TIME ( 7, 45, 10.00000000000000000, #191 ) ;
#34 = DIRECTION ( 'NONE',  ( 0.0000000000000000000, 1.000000000000000000, 0.0000000000000000000 ) ) ;
#35 = PERSON_AND_ORGANIZATION ( #279, #271 ) ;
#36 = CARTESIAN_POINT ( 'NONE',  ( 0.0000000000000000000, 0.0000000000000000000, 0.0000000000000000000 ) ) ;
#37 = DIRECTION ( 'NONE',  ( -4.923553330346602078E-31, -1.000000000000000000, -1.385857058992982607E-16 ) ) ;
#38 =( GEOMETRIC_REPRESENTATION_CONTEXT ( 3 ) GLOBAL_UNCERTAINTY_ASSIGNED_CONTEXT ( ( #80 ) ) GLOBAL_UNIT_ASSIGNED_CONTEXT ( ( #144, #130, #73 ) ) REPRESENTATION_CONTEXT ( 'NONE', 'WORKASPACE' ) );
#39 = EDGE_CURVE ( 'NONE', #199, #199, #172, .T. ) ;
#40 = ORIENTED_EDGE ( 'NONE', *, *, #70, .F. ) ;
#41 = ORIENTED_EDGE ( 'NONE', *, *, #79, .T. ) ;
#42 = CIRCLE ( 'NONE', #166, 1.019999999999999130 ) ;
#43 = ORIENTED_EDGE ( 'NONE', *, *, #143, .T. ) ;
#44 = APPROVAL ( #289, 'UNSPECIFIED' ) ;
#45 = ADVANCED_BREP_SHAPE_REPRESENTATION ( '956298', ( #148, #252, #246 ), #38 ) ;
#46 = LOCAL_TIME ( 7, 45, 10.00000000000000000, #112 ) ;
#47 = EDGE_CURVE ( 'NONE', #113, #113, #108, .T. ) ;
#48 = EDGE_LOOP ( 'NONE', ( #71 ) ) ;
#49 = FACE_OUTER_BOUND ( 'NONE', #66, .T. ) ;
#50 = CARTESIAN_POINT ( 'NONE',  ( 3.491481338843133355E-14, -1.224646799147353256E-15, 10.00000000000000000 ) ) ;
#51 = AXIS2_PLACEMENT_3D ( 'NONE', #133, #259, #102 ) ;
#52 = DIRECTION ( 'NONE',  ( -3.491481338843133355E-15, 1.224646799147353207E-16, -1.000000000000000000 ) ) ;
#53 = PERSON_AND_ORGANIZATION_ROLE ( 'creator' ) ;
#54 = DIRECTION ( 'NONE',  ( 0.0000000000000000000, -1.000000000000000000, 0.0000000000000000000 ) ) ;
#55 = APPROVAL_STATUS ( 'not_yet_approved' ) ;
#56 = PLANE ( 'NONE',  #278 ) ;
#57 = PERSON_AND_ORGANIZATION ( #279, #271 ) ;
#58 = AXIS2_PLACEMENT_3D ( 'NONE', #277, #67, #250 ) ;
#59 = FACE_OUTER_BOUND ( 'NONE', #118, .T. ) ;
#60 = CALENDAR_DATE ( 2021, 30, 11 ) ;
#61 = ADVANCED_FACE ( 'NONE', ( #284, #49 ), #260, .T. ) ;
#62 = VERTEX_POINT ( 'NONE', #114 ) ;
#63 = FACE_BOUND ( 'NONE', #160, .T. ) ;
#64 = APPROVAL_PERSON_ORGANIZATION ( #292, #44, #285 ) ;
#65 = EDGE_LOOP ( 'NONE', ( #302 ) ) ;
#66 = EDGE_LOOP ( 'NONE', ( #254 ) ) ;
#67 = DIRECTION ( 'NONE',  ( -3.491481338843133355E-15, 1.224646799147353207E-16, -1.000000000000000000 ) ) ;
#68 = EDGE_CURVE ( 'NONE', #17, #17, #225, .T. ) ;
#69 = APPLICATION_CONTEXT ( 'configuration controlled 3d designs of mechanical parts and assemblies' ) ;
#70 = EDGE_CURVE ( 'NONE', #243, #243, #205, .T. ) ;
#71 = ORIENTED_EDGE ( 'NONE', *, *, #47, .F. ) ;
#72 = CC_DESIGN_APPROVAL ( #44, ( #286 ) ) ;
#73 =( NAMED_UNIT ( * ) SI_UNIT ( $, .STERADIAN. ) SOLID_ANGLE_UNIT ( ) );
#74 = DIRECTION ( 'NONE',  ( -3.491481338843133355E-15, 1.224646799147353207E-16, -1.000000000000000000 ) ) ;
#75 = CYLINDRICAL_SURFACE ( 'NONE', #116, 1.173499999999994658 ) ;
#76 = DATE_AND_TIME ( #198, #46 ) ;
#77 = CC_DESIGN_PERSON_AND_ORGANIZATION_ASSIGNMENT ( #171, #83, ( #286 ) ) ;
#78 = CARTESIAN_POINT ( 'NONE',  ( -4.092998372725933864E-31, 1.435630573278382208E-32, -1.172281325748717004E-16 ) ) ;
#79 = EDGE_CURVE ( 'NONE', #15, #15, #99, .T. ) ;
#80 = UNCERTAINTY_MEASURE_WITH_UNIT (LENGTH_MEASURE( 1.000000000000000082E-05 ), #144, 'distance_accuracy_value', 'NONE');
#81 = APPROVAL_PERSON_ORGANIZATION ( #57, #20, #152 ) ;
#82 = DIRECTION ( 'NONE',  ( 0.0000000000000000000, 1.000000000000000000, 0.0000000000000000000 ) ) ;
#83 = PERSON_AND_ORGANIZATION_ROLE ( 'design_supplier' ) ;
#84 = FACE_OUTER_BOUND ( 'NONE', #223, .T. ) ;
#85 = PRODUCT_DEFINITION ( 'UNKNOWN', '', #286, #107 ) ;
#86 = DIRECTION ( 'NONE',  ( -3.491481338843133355E-15, 1.224646799147353207E-16, -1.000000000000000000 ) ) ;
#87 = SECURITY_CLASSIFICATION_LEVEL ( 'unclassified' ) ;
#88 = AXIS2_PLACEMENT_3D ( 'NONE', #226, #24, #34 ) ;
#89 = CARTESIAN_POINT ( 'NONE',  ( 3.491481338843133355E-14, 1.173499999999993992, 10.00000000000000000 ) ) ;
#90 = FACE_OUTER_BOUND ( 'NONE', #244, .T. ) ;
#91 = ORIENTED_EDGE ( 'NONE', *, *, #139, .T. ) ;
#92 = ADVANCED_FACE ( 'NONE', ( #262 ), #287, .F. ) ;
#93 = SECURITY_CLASSIFICATION ( '', '', #87 ) ;
#94 = EDGE_LOOP ( 'NONE', ( #91 ) ) ;
#95 = DIRECTION ( 'NONE',  ( 0.0000000000000000000, 1.000000000000000000, 0.0000000000000000000 ) ) ;
#96 = ADVANCED_FACE ( 'NONE', ( #214 ), #264, .F. ) ;
#97 = CONICAL_SURFACE ( 'NONE', #288, 1.200000000000001732, 0.7853981633974453924 ) ;
#98 = CARTESIAN_POINT ( 'NONE',  ( 3.491481338843133355E-14, -1.224646799147353256E-15, 10.00000000000000000 ) ) ;
#99 = CIRCLE ( 'NONE', #141, 1.173499999999995325 ) ;
#100 = DIRECTION ( 'NONE',  ( 0.0000000000000000000, 1.000000000000000000, 0.0000000000000000000 ) ) ;
#101 = APPROVAL_ROLE ( '' ) ;
#102 = DIRECTION ( 'NONE',  ( 4.275831445896958607E-31, 1.000000000000000000, 1.224646799147353207E-16 ) ) ;
#103 = APPLICATION_PROTOCOL_DEFINITION ( 'international standard', 'config_control_design', 1994, #69 ) ;
#104 = VERTEX_POINT ( 'NONE', #217 ) ;
#105 = DIRECTION ( 'NONE',  ( 0.0000000000000000000, 1.000000000000000000, 0.0000000000000000000 ) ) ;
#106 = PERSON_AND_ORGANIZATION_ROLE ( 'design_owner' ) ;
#107 = DESIGN_CONTEXT ( 'detailed design', #255, 'design' ) ;
#108 = CIRCLE ( 'NONE', #88, 1.499999999999996669 ) ;
#109 = CARTESIAN_POINT ( 'NONE',  ( 3.584309283006850656E-14, 1.019999999999997797, 10.26586979896182150 ) ) ;
#110 = DIRECTION ( 'NONE',  ( 0.0000000000000000000, 1.000000000000000000, 0.0000000000000000000 ) ) ;
#111 = VERTEX_POINT ( 'NONE', #109 ) ;
#112 = COORDINATED_UNIVERSAL_TIME_OFFSET ( 1, 0, .AHEAD. ) ;
#113 = VERTEX_POINT ( 'NONE', #156 ) ;
#114 = CARTESIAN_POINT ( 'NONE',  ( -3.785471652766322713E-31, 1.029162432702589669, -1.084202172485504434E-16 ) ) ;
#115 = ORIENTED_EDGE ( 'NONE', *, *, #68, .T. ) ;
#116 = AXIS2_PLACEMENT_3D ( 'NONE', #36, #297, #266 ) ;
#117 = PRODUCT_RELATED_PRODUCT_CATEGORY ( 'detail', '', ( #299 ) ) ;
#118 = EDGE_LOOP ( 'NONE', ( #222 ) ) ;
#119 = CIRCLE ( 'NONE', #195, 1.050384493975580869 ) ;
#120 = LOCAL_TIME ( 7, 45, 10.00000000000000000, #127 ) ;
#121 = ADVANCED_FACE ( 'NONE', ( #238, #291 ), #31, .T. ) ;
#122 = EDGE_LOOP ( 'NONE', ( #40 ) ) ;
#123 = CARTESIAN_POINT ( 'NONE',  ( 6.982962677686266711E-14, -2.449293598294706513E-15, 20.00000000000000000 ) ) ;
#124 = PERSON_AND_ORGANIZATION ( #279, #271 ) ;
#125 = ADVANCED_FACE ( 'NONE', ( #211, #84 ), #136, .F. ) ;
#126 = CARTESIAN_POINT ( 'NONE',  ( 3.491481338843133355E-14, 8.799840524768395515E-33, 10.00000000000000000 ) ) ;
#127 = COORDINATED_UNIVERSAL_TIME_OFFSET ( 1, 0, .AHEAD. ) ;
#128 = DIRECTION ( 'NONE',  ( 3.491481338843133355E-15, -1.224646799147353207E-16, 1.000000000000000000 ) ) ;
#129 = CARTESIAN_POINT ( 'NONE',  ( 0.0000000000000000000, 0.0000000000000000000, 0.0000000000000000000 ) ) ;
#130 =( NAMED_UNIT ( * ) PLANE_ANGLE_UNIT ( ) SI_UNIT ( $, .RADIAN. ) );
#131 = SHAPE_DEFINITION_REPRESENTATION ( #245, #45 ) ;
#132 = LOCAL_TIME ( 7, 45, 10.00000000000000000, #32 ) ;
#133 = CARTESIAN_POINT ( 'NONE',  ( 1.745740669421566678E-13, 8.998558695971067645E-33, 50.00000000000000000 ) ) ;
#134 = CARTESIAN_POINT ( 'NONE',  ( 1.745740669421566678E-13, -6.123233995736766085E-15, 50.00000000000000000 ) ) ;
#135 = DIRECTION ( 'NONE',  ( -3.491481338843133355E-15, 1.224646799147353207E-16, -1.000000000000000000 ) ) ;
#136 = TOROIDAL_SURFACE ( 'NONE', #296, 3.020000000000000018, 2.000000000000000000 ) ;
#137 = EDGE_LOOP ( 'NONE', ( #247 ) ) ;
#138 = EDGE_LOOP ( 'NONE', ( #206 ) ) ;
#139 = EDGE_CURVE ( 'NONE', #111, #111, #42, .T. ) ;
#140 = AXIS2_PLACEMENT_3D ( 'NONE', #78, #236, #168 ) ;
#141 = AXIS2_PLACEMENT_3D ( 'NONE', #98, #145, #105 ) ;
#142 = DIRECTION ( 'NONE',  ( 4.275831445896957731E-31, 1.000000000000000000, 1.224646799147353207E-16 ) ) ;
#143 = EDGE_CURVE ( 'NONE', #104, #104, #119, .T. ) ;
#144 =( LENGTH_UNIT ( ) NAMED_UNIT ( * ) SI_UNIT ( .MILLI., .METRE. ) );
#145 = DIRECTION ( 'NONE',  ( -3.491481338843133355E-15, 1.224646799147353207E-16, -1.000000000000000000 ) ) ;
#146 = CALENDAR_DATE ( 2021, 30, 11 ) ;
#147 = DIRECTION ( 'NONE',  ( -3.491481338843133355E-15, 1.224646799147353207E-16, -1.000000000000000000 ) ) ;
#148 = MANIFOLD_SOLID_BREP ( 'Corps-Déplacer/Copier1[1]', #280 ) ;
#149 = DIRECTION ( 'NONE',  ( 0.0000000000000000000, 1.000000000000000000, 0.0000000000000000000 ) ) ;
#150 = PERSON_AND_ORGANIZATION_ROLE ( 'classification_officer' ) ;
#151 = DIRECTION ( 'NONE',  ( 3.491481338843133355E-15, -1.224646799147353207E-16, 1.000000000000000000 ) ) ;
#152 = APPROVAL_ROLE ( '' ) ;
#153 = AXIS2_PLACEMENT_3D ( 'NONE', #212, #193, #82 ) ;
#154 = CARTESIAN_POINT ( 'NONE',  ( 0.0000000000000000000, 0.0000000000000000000, 0.0000000000000000000 ) ) ;
#155 = APPROVAL_DATE_TIME ( #194, #20 ) ;
#156 = CARTESIAN_POINT ( 'NONE',  ( 7.994512067643261081E-14, 1.499999999999994005, 22.89719260046843274 ) ) ;
#157 = CC_DESIGN_PERSON_AND_ORGANIZATION_ASSIGNMENT ( #7, #294, ( #286 ) ) ;
#158 = EDGE_LOOP ( 'NONE', ( #248 ) ) ;
#159 = ORIENTED_EDGE ( 'NONE', *, *, #249, .T. ) ;
#160 = EDGE_LOOP ( 'NONE', ( #273 ) ) ;
#161 = AXIS2_PLACEMENT_3D ( 'NONE', #175, #192, #54 ) ;
#162 = APPROVAL ( #55, 'UNSPECIFIED' ) ;
#163 = ADVANCED_FACE ( 'NONE', ( #234 ), #56, .T. ) ;
#164 = CLOSED_SHELL ( 'NONE', ( #96, #290, #261, #163 ) ) ;
#165 = ORIENTED_EDGE ( 'NONE', *, *, #16, .F. ) ;
#166 = AXIS2_PLACEMENT_3D ( 'NONE', #218, #29, #230 ) ;
#167 = DIRECTION ( 'NONE',  ( -4.275831445896958607E-31, -1.000000000000000000, -1.224646799147353207E-16 ) ) ;
#168 = DIRECTION ( 'NONE',  ( -4.275831445896958607E-31, -1.000000000000000000, -1.224646799147353207E-16 ) ) ;
#169 = DIRECTION ( 'NONE',  ( 0.0000000000000000000, 0.0000000000000000000, 1.000000000000000000 ) ) ;
#170 = DIRECTION ( 'NONE',  ( -4.275831445896958607E-31, -1.000000000000000000, -1.224646799147353207E-16 ) ) ;
#171 = PERSON_AND_ORGANIZATION ( #279, #271 ) ;
#172 = CIRCLE ( 'NONE', #58, 1.200000000000001732 ) ;
#173 = FACE_OUTER_BOUND ( 'NONE', #186, .T. ) ;
#174 = COORDINATED_UNIVERSAL_TIME_OFFSET ( 1, 0, .AHEAD. ) ;
#175 = CARTESIAN_POINT ( 'NONE',  ( 7.994512067643261081E-14, -2.804097362762412637E-15, 22.89719260046843274 ) ) ;
#176 = FACE_BOUND ( 'NONE', #137, .T. ) ;
#177 = DATE_AND_TIME ( #239, #253 ) ;
#178 = AXIS2_PLACEMENT_3D ( 'NONE', #123, #6, #100 ) ;
#179 = CYLINDRICAL_SURFACE ( 'NONE', #27, 1.499999999999999112 ) ;
#180 = ADVANCED_FACE ( 'NONE', ( #257, #208 ), #18, .T. ) ;
#181 = CARTESIAN_POINT ( 'NONE',  ( 8.728703347107829444E-16, -3.061616997868381785E-17, 0.2499999999999998890 ) ) ;
#182 = CARTESIAN_POINT ( 'NONE',  ( -8.185996745451867728E-31, 2.871261146556764416E-32, -2.344562651497434008E-16 ) ) ;
#183 = EDGE_LOOP ( 'NONE', ( #165 ) ) ;
#184 = CC_DESIGN_APPROVAL ( #20, ( #85 ) ) ;
#185 = EDGE_LOOP ( 'NONE', ( #115 ) ) ;
#186 = EDGE_LOOP ( 'NONE', ( #41 ) ) ;
#187 = ORIENTED_EDGE ( 'NONE', *, *, #79, .F. ) ;
#188 = CARTESIAN_POINT ( 'NONE',  ( 3.491481338843133355E-14, 8.799840524768395515E-33, 10.00000000000000000 ) ) ;
#189 = AXIS2_PLACEMENT_3D ( 'NONE', #182, #224, #23 ) ;
#190 = FACE_OUTER_BOUND ( 'NONE', #122, .T. ) ;
#191 = COORDINATED_UNIVERSAL_TIME_OFFSET ( 1, 0, .AHEAD. ) ;
#192 = DIRECTION ( 'NONE',  ( 3.491481338843133355E-15, -1.224646799147353207E-16, 1.000000000000000000 ) ) ;
#193 = DIRECTION ( 'NONE',  ( -3.491481338843133355E-15, 1.224646799147353207E-16, -1.000000000000000000 ) ) ;
#194 = DATE_AND_TIME ( #60, #132 ) ;
#195 = AXIS2_PLACEMENT_3D ( 'NONE', #11, #147, #110 ) ;
#196 = DIRECTION ( 'NONE',  ( -3.491481338843133355E-15, 1.224646799147353207E-16, -1.000000000000000000 ) ) ;
#197 = CARTESIAN_POINT ( 'NONE',  ( 1.735266225405037467E-13, 1.499999999999995559, 49.70000000000000284 ) ) ;
#198 = CALENDAR_DATE ( 2021, 30, 11 ) ;
#199 = VERTEX_POINT ( 'NONE', #220 ) ;
#200 = CONICAL_SURFACE ( 'NONE', #232, 1.173499999999993992, 0.5235987755982924874 ) ;
#201 = CC_DESIGN_APPROVAL ( #162, ( #93 ) ) ;
#202 = CARTESIAN_POINT ( 'NONE',  ( 8.728703347107835360E-16, 1.173499999999993992, 0.2500000000000000555 ) ) ;
#203 = CC_DESIGN_PERSON_AND_ORGANIZATION_ASSIGNMENT ( #213, #106, ( #299 ) ) ;
#204 = ORIENTED_EDGE ( 'NONE', *, *, #249, .F. ) ;
#205 = CIRCLE ( 'NONE', #216, 1.173499999999993992 ) ;
#206 = ORIENTED_EDGE ( 'NONE', *, *, #139, .F. ) ;
#207 = EDGE_LOOP ( 'NONE', ( #204 ) ) ;
#208 = FACE_BOUND ( 'NONE', #94, .T. ) ;
#209 = AXIS2_PLACEMENT_3D ( 'NONE', #270, #303, #95 ) ;
#210 = APPROVAL_STATUS ( 'not_yet_approved' ) ;
#211 = FACE_OUTER_BOUND ( 'NONE', #207, .T. ) ;
#212 = CARTESIAN_POINT ( 'NONE',  ( 3.584309283006850656E-14, -1.257206458976207460E-15, 10.26586979896182150 ) ) ;
#213 = PERSON_AND_ORGANIZATION ( #279, #271 ) ;
#214 = FACE_OUTER_BOUND ( 'NONE', #3, .T. ) ;
#215 = DATE_AND_TIME ( #237, #33 ) ;
#216 = AXIS2_PLACEMENT_3D ( 'NONE', #8, #196, #256 ) ;
#217 = CARTESIAN_POINT ( 'NONE',  ( 7.104220552055900573E-14, 1.050384493975578426, 20.34729635533384240 ) ) ;
#218 = CARTESIAN_POINT ( 'NONE',  ( 3.584309283006850656E-14, -1.257206458976207460E-15, 10.26586979896182150 ) ) ;
#219 = CC_DESIGN_DATE_AND_TIME_ASSIGNMENT ( #14, #233, ( #85 ) ) ;
#220 = CARTESIAN_POINT ( 'NONE',  ( 1.745740669421566678E-13, 1.199999999999995515, 50.00000000000000000 ) ) ;
#221 = VERTEX_POINT ( 'NONE', #197 ) ;
#222 = ORIENTED_EDGE ( 'NONE', *, *, #16, .T. ) ;
#223 = EDGE_LOOP ( 'NONE', ( #43 ) ) ;
#224 = DIRECTION ( 'NONE',  ( -3.491481338843133355E-15, 1.224646799147353207E-16, -1.000000000000000000 ) ) ;
#225 = CIRCLE ( 'NONE', #228, 1.173499999999995325 ) ;
#226 = CARTESIAN_POINT ( 'NONE',  ( 7.994512067643261081E-14, -2.804097362762412637E-15, 22.89719260046843274 ) ) ;
#227 = ADVANCED_FACE ( 'NONE', ( #173 ), #26, .F. ) ;
#228 = AXIS2_PLACEMENT_3D ( 'NONE', #50, #52, #149 ) ;
#229 = ORIENTED_EDGE ( 'NONE', *, *, #68, .F. ) ;
#230 = DIRECTION ( 'NONE',  ( 0.0000000000000000000, 1.000000000000000000, 0.0000000000000000000 ) ) ;
#231 = DIRECTION ( 'NONE',  ( 4.275831445896959482E-31, 1.000000000000000000, 1.224646799147353207E-16 ) ) ;
#232 = AXIS2_PLACEMENT_3D ( 'NONE', #181, #269, #37 ) ;
#233 = DATE_TIME_ROLE ( 'creation_date' ) ;
#234 = FACE_OUTER_BOUND ( 'NONE', #272, .T. ) ;
#235 = VERTEX_POINT ( 'NONE', #241 ) ;
#236 = DIRECTION ( 'NONE',  ( 3.491481338843133355E-15, -1.224646799147353207E-16, 1.000000000000000000 ) ) ;
#237 = CALENDAR_DATE ( 2021, 30, 11 ) ;
#238 = FACE_OUTER_BOUND ( 'NONE', #138, .T. ) ;
#239 = CALENDAR_DATE ( 2021, 30, 11 ) ;
#240 = AXIS2_PLACEMENT_3D ( 'NONE', #188, #151, #167 ) ;
#241 = CARTESIAN_POINT ( 'NONE',  ( 6.982962677686266711E-14, 1.019999999999997575, 20.00000000000000000 ) ) ;
#242 = FACE_OUTER_BOUND ( 'NONE', #183, .T. ) ;
#243 = VERTEX_POINT ( 'NONE', #202 ) ;
#244 = EDGE_LOOP ( 'NONE', ( #25 ) ) ;
#246 = AXIS2_PLACEMENT_3D ( 'NONE', #129, #169, #10 ) ;
#245 = PRODUCT_DEFINITION_SHAPE ( 'NONE', 'NONE',  #85 ) ;
#247 = ORIENTED_EDGE ( 'NONE', *, *, #4, .F. ) ;
#248 = ORIENTED_EDGE ( 'NONE', *, *, #39, .F. ) ;
#249 = EDGE_CURVE ( 'NONE', #235, #235, #251, .T. ) ;
#250 = DIRECTION ( 'NONE',  ( 0.0000000000000000000, 1.000000000000000000, 0.0000000000000000000 ) ) ;
#251 = CIRCLE ( 'NONE', #178, 1.019999999999999796 ) ;
#252 = MANIFOLD_SOLID_BREP ( 'Corps-Déplacer/Copier1[2]', #164 ) ;
#253 = LOCAL_TIME ( 7, 45, 10.00000000000000000, #174 ) ;
#254 = ORIENTED_EDGE ( 'NONE', *, *, #47, .T. ) ;
#255 = APPLICATION_CONTEXT ( 'configuration controlled 3d designs of mechanical parts and assemblies' ) ;
#256 = DIRECTION ( 'NONE',  ( 4.923553330346602078E-31, 1.000000000000000000, 1.385857058992982607E-16 ) ) ;
#257 = FACE_OUTER_BOUND ( 'NONE', #19, .T. ) ;
#258 = APPROVAL_DATE_TIME ( #215, #162 ) ;
#259 = DIRECTION ( 'NONE',  ( -3.491481338843133355E-15, 1.224646799147353207E-16, -1.000000000000000000 ) ) ;
#260 = CONICAL_SURFACE ( 'NONE', #161, 1.499999999999996669, 0.1745329251994260922 ) ;
#261 = ADVANCED_FACE ( 'NONE', ( #190, #282 ), #75, .T. ) ;
#262 = FACE_OUTER_BOUND ( 'NONE', #158, .T. ) ;
#263 = PERSON_AND_ORGANIZATION ( #279, #271 ) ;
#264 = PLANE ( 'NONE',  #140 ) ;
#265 = APPLICATION_PROTOCOL_DEFINITION ( 'international standard', 'config_control_design', 1994, #255 ) ;
#266 = DIRECTION ( 'NONE',  ( 4.275831445896958607E-31, 1.000000000000000000, 1.224646799147353207E-16 ) ) ;
#267 = AXIS2_PLACEMENT_3D ( 'NONE', #281, #9, #231 ) ;
#268 = DIRECTION ( 'NONE',  ( 4.275831445896958607E-31, 1.000000000000000000, 1.224646799147353454E-16 ) ) ;
#269 = DIRECTION ( 'NONE',  ( 3.491481338843133355E-15, -1.224646799147353207E-16, 1.000000000000000000 ) ) ;
#270 = CARTESIAN_POINT ( 'NONE',  ( 1.735266225405037467E-13, -6.086494591762345225E-15, 49.70000000000000284 ) ) ;
#271 = ORGANIZATION ( 'UNSPECIFIED', 'UNSPECIFIED', '' ) ;
#272 = EDGE_LOOP ( 'NONE', ( #229 ) ) ;
#273 = ORIENTED_EDGE ( 'NONE', *, *, #39, .T. ) ;
#274 = CC_DESIGN_DATE_AND_TIME_ASSIGNMENT ( #177, #12, ( #93 ) ) ;
#275 = CC_DESIGN_PERSON_AND_ORGANIZATION_ASSIGNMENT ( #124, #53, ( #85 ) ) ;
#276 = ADVANCED_FACE ( 'NONE', ( #293, #59 ), #179, .T. ) ;
#277 = CARTESIAN_POINT ( 'NONE',  ( 1.745740669421566678E-13, -6.123233995736766085E-15, 50.00000000000000000 ) ) ;
#278 = AXIS2_PLACEMENT_3D ( 'NONE', #126, #128, #170 ) ;
#279 = PERSON ( 'UNSPECIFIED', 'UNSPECIFIED', 'UNSPECIFIED', ('UNSPECIFIED'), ('UNSPECIFIED'), ('UNSPECIFIED') ) ;
#280 = CLOSED_SHELL ( 'NONE', ( #227, #180, #121, #125, #61, #276, #298, #92 ) ) ;
#281 = CARTESIAN_POINT ( 'NONE',  ( 0.0000000000000000000, 0.0000000000000000000, 0.0000000000000000000 ) ) ;
#282 = FACE_OUTER_BOUND ( 'NONE', #185, .T. ) ;
#283 = MECHANICAL_CONTEXT ( 'NONE', #69, 'mechanical' ) ;
#284 = FACE_BOUND ( 'NONE', #65, .T. ) ;
#285 = APPROVAL_ROLE ( '' ) ;
#286 = PRODUCT_DEFINITION_FORMATION_WITH_SPECIFIED_SOURCE ( 'ANY', '', #299, .NOT_KNOWN. ) ;
#287 = PLANE ( 'NONE',  #51 ) ;
#288 = AXIS2_PLACEMENT_3D ( 'NONE', #134, #135, #295 ) ;
#289 = APPROVAL_STATUS ( 'not_yet_approved' ) ;
#290 = ADVANCED_FACE ( 'NONE', ( #176, #90 ), #200, .T. ) ;
#291 = FACE_OUTER_BOUND ( 'NONE', #2, .T. ) ;
#292 = PERSON_AND_ORGANIZATION ( #279, #271 ) ;
#293 = FACE_OUTER_BOUND ( 'NONE', #48, .T. ) ;
#294 = PERSON_AND_ORGANIZATION_ROLE ( 'creator' ) ;
#295 = DIRECTION ( 'NONE',  ( 0.0000000000000000000, 1.000000000000000000, 0.0000000000000000000 ) ) ;
#296 = AXIS2_PLACEMENT_3D ( 'NONE', #28, #74, #142 ) ;
#297 = DIRECTION ( 'NONE',  ( -3.491481338843133355E-15, 1.224646799147353207E-16, -1.000000000000000000 ) ) ;
#298 = ADVANCED_FACE ( 'NONE', ( #242, #63 ), #97, .T. ) ;
#299 = PRODUCT ( '956298', '956298', '', ( #283 ) ) ;
#300 = CC_DESIGN_PERSON_AND_ORGANIZATION_ASSIGNMENT ( #35, #150, ( #93 ) ) ;
#301 = APPROVAL_PERSON_ORGANIZATION ( #263, #162, #101 ) ;
#302 = ORIENTED_EDGE ( 'NONE', *, *, #143, .F. ) ;
#303 = DIRECTION ( 'NONE',  ( -3.491481338843133355E-15, 1.224646799147353207E-16, -1.000000000000000000 ) ) ;
ENDSEC;
END-ISO-10303-21;
