ISO-10303-21;
HEADER;
FILE_DESCRIPTION (( 'STEP AP203' ),
    '1' );
FILE_NAME ('956015.step',
    '2021-11-30T06:45:09',
    ( '' ),
    ( '' ),
    'SwSTEP 2.0',
    'SolidWorks 2019',
    '' );
FILE_SCHEMA (( 'CONFIG_CONTROL_DESIGN' ));
ENDSEC;

DATA;
#1 = EDGE_LOOP ( 'NONE', ( #5 ) ) ;
#2 = EDGE_CURVE ( 'NONE', #147, #147, #160, .T. ) ;
#3 = CARTESIAN_POINT ( 'NONE',  ( 0.0000000000000000000, 0.0000000000000000000, 0.0000000000000000000 ) ) ;
#4 = EDGE_LOOP ( 'NONE', ( #206 ) ) ;
#5 = ORIENTED_EDGE ( 'NONE', *, *, #168, .T. ) ;
#6 = AXIS2_PLACEMENT_3D ( 'NONE', #94, #257, #184 ) ;
#7 = CYLINDRICAL_SURFACE ( 'NONE', #187, 1.138499999999994072 ) ;
#8 = FACE_OUTER_BOUND ( 'NONE', #251, .T. ) ;
#9 = VERTEX_POINT ( 'NONE', #103 ) ;
#10 = DIRECTION ( 'NONE',  ( -3.491481338843133355E-15, 1.224646799147353207E-16, -1.000000000000000000 ) ) ;
#11 = DIRECTION ( 'NONE',  ( 4.275831445896958607E-31, 1.000000000000000000, 1.224646799147353207E-16 ) ) ;
#12 = CC_DESIGN_PERSON_AND_ORGANIZATION_ASSIGNMENT ( #108, #297, ( #151 ) ) ;
#13 = CARTESIAN_POINT ( 'NONE',  ( 2.793185071074506684E-14, -9.797174393178825657E-16, 8.000000000000000000 ) ) ;
#14 = AXIS2_PLACEMENT_3D ( 'NONE', #265, #31, #215 ) ;
#15 = APPROVAL_DATE_TIME ( #134, #131 ) ;
#16 = CALENDAR_DATE ( 2021, 30, 11 ) ;
#17 = AXIS2_PLACEMENT_3D ( 'NONE', #292, #243, #239 ) ;
#18 = CARTESIAN_POINT ( 'NONE',  ( 6.405924284287273902E-14, 1.015384493975578506, 18.34729635533384240 ) ) ;
#19 = APPLICATION_PROTOCOL_DEFINITION ( 'international standard', 'config_control_design', 1994, #223 ) ;
#20 = MANIFOLD_SOLID_BREP ( 'Corps-Déplacer/Copier1[1]', #63 ) ;
#21 = CARTESIAN_POINT ( 'NONE',  ( 7.365519911116439655E-14, -2.583476612879043467E-15, 21.09568746415505558 ) ) ;
#22 = EDGE_CURVE ( 'NONE', #288, #288, #178, .T. ) ;
#23 = AXIS2_PLACEMENT_3D ( 'NONE', #290, #164, #195 ) ;
#24 = DIRECTION ( 'NONE',  ( 0.0000000000000000000, 1.000000000000000000, 0.0000000000000000000 ) ) ;
#25 = DIRECTION ( 'NONE',  ( -4.275831445896958607E-31, -1.000000000000000000, -1.224646799147353207E-16 ) ) ;
#26 = EDGE_LOOP ( 'NONE', ( #119 ) ) ;
#27 = DIRECTION ( 'NONE',  ( -3.491481338843133355E-15, 1.224646799147353207E-16, -1.000000000000000000 ) ) ;
#28 = PLANE ( 'NONE',  #252 ) ;
#29 = DIRECTION ( 'NONE',  ( 0.0000000000000000000, -1.000000000000000000, 0.0000000000000000000 ) ) ;
#30 = ADVANCED_FACE ( 'NONE', ( #233, #122 ), #47, .T. ) ;
#31 = DIRECTION ( 'NONE',  ( -3.491481338843133355E-15, 1.224646799147353207E-16, -1.000000000000000000 ) ) ;
#32 = AXIS2_PLACEMENT_3D ( 'NONE', #142, #169, #130 ) ;
#33 = CC_DESIGN_PERSON_AND_ORGANIZATION_ASSIGNMENT ( #222, #245, ( #231 ) ) ;
#34 = CARTESIAN_POINT ( 'NONE',  ( 6.405924284287273902E-14, -2.246895775456748746E-15, 18.34729635533384240 ) ) ;
#35 = FACE_OUTER_BOUND ( 'NONE', #153, .T. ) ;
#36 = CARTESIAN_POINT ( 'NONE',  ( 0.0000000000000000000, 0.0000000000000000000, 0.0000000000000000000 ) ) ;
#37 = CIRCLE ( 'NONE', #236, 0.9941624327025893049 ) ;
#38 = COORDINATED_UNIVERSAL_TIME_OFFSET ( 1, 0, .AHEAD. ) ;
#39 = EDGE_LOOP ( 'NONE', ( #91 ) ) ;
#40 = CARTESIAN_POINT ( 'NONE',  ( 6.284666409917640040E-14, 0.9849999999999975442, 18.00000000000000000 ) ) ;
#41 = MECHANICAL_CONTEXT ( 'NONE', #223, 'mechanical' ) ;
#42 = CIRCLE ( 'NONE', #192, 0.9849999999999997646 ) ;
#43 = CALENDAR_DATE ( 2021, 30, 11 ) ;
#44 = DIRECTION ( 'NONE',  ( -3.491481338843133355E-15, 1.224646799147353207E-16, -1.000000000000000000 ) ) ;
#45 = EDGE_LOOP ( 'NONE', ( #62 ) ) ;
#46 = PERSON_AND_ORGANIZATION ( #303, #141 ) ;
#47 = CONICAL_SURFACE ( 'NONE', #284, 1.200000000000001732, 0.7853981633974453924 ) ;
#48 = FACE_OUTER_BOUND ( 'NONE', #274, .T. ) ;
#49 = APPROVAL_ROLE ( '' ) ;
#50 = DIRECTION ( 'NONE',  ( 3.491481338843133355E-15, -1.224646799147353207E-16, 1.000000000000000000 ) ) ;
#51 = DIRECTION ( 'NONE',  ( 0.0000000000000000000, 1.000000000000000000, 0.0000000000000000000 ) ) ;
#52 = APPROVAL_PERSON_ORGANIZATION ( #84, #293, #203 ) ;
#53 = ADVANCED_FACE ( 'NONE', ( #48, #255 ), #166, .F. ) ;
#54 = VERTEX_POINT ( 'NONE', #144 ) ;
#55 = DIRECTION ( 'NONE',  ( 3.491481338843133355E-15, -1.224646799147353207E-16, 1.000000000000000000 ) ) ;
#56 = CARTESIAN_POINT ( 'NONE',  ( 1.745740669421566678E-13, 8.998558695971067645E-33, 50.00000000000000000 ) ) ;
#57 = AXIS2_PLACEMENT_3D ( 'NONE', #34, #126, #51 ) ;
#58 = LOCAL_TIME ( 7, 45, 9.000000000000000000, #302 ) ;
#59 = DIRECTION ( 'NONE',  ( -4.275831445896958607E-31, -1.000000000000000000, -1.224646799147353207E-16 ) ) ;
#60 = DATE_AND_TIME ( #132, #289 ) ;
#61 = CC_DESIGN_DATE_AND_TIME_ASSIGNMENT ( #116, #95, ( #231 ) ) ;
#62 = ORIENTED_EDGE ( 'NONE', *, *, #168, .F. ) ;
#63 = CLOSED_SHELL ( 'NONE', ( #78, #246, #224, #53, #157, #181, #30, #191 ) ) ;
#64 = ADVANCED_FACE ( 'NONE', ( #234, #253 ), #172, .T. ) ;
#65 = ORIENTED_EDGE ( 'NONE', *, *, #214, .T. ) ;
#66 = DATE_TIME_ROLE ( 'creation_date' ) ;
#67 = EDGE_LOOP ( 'NONE', ( #65 ) ) ;
#68 = CC_DESIGN_PERSON_AND_ORGANIZATION_ASSIGNMENT ( #199, #266, ( #204 ) ) ;
#69 = APPROVAL_ROLE ( '' ) ;
#70 = DIRECTION ( 'NONE',  ( -3.491481338843133355E-15, 1.224646799147353207E-16, -1.000000000000000000 ) ) ;
#71 = DATE_AND_TIME ( #282, #155 ) ;
#72 = EDGE_LOOP ( 'NONE', ( #286 ) ) ;
#73 = CIRCLE ( 'NONE', #247, 1.499999999999996669 ) ;
#74 = DIRECTION ( 'NONE',  ( -5.074914214459147757E-31, -1.000000000000000000, -1.428461360323465704E-16 ) ) ;
#75 = LOCAL_TIME ( 7, 45, 9.000000000000000000, #148 ) ;
#76 = CARTESIAN_POINT ( 'NONE',  ( 1.745740669421566678E-13, -6.123233995736766085E-15, 50.00000000000000000 ) ) ;
#77 = DIRECTION ( 'NONE',  ( -3.491481338843133355E-15, 1.224646799147353207E-16, -1.000000000000000000 ) ) ;
#78 = ADVANCED_FACE ( 'NONE', ( #285 ), #163, .F. ) ;
#79 = DIRECTION ( 'NONE',  ( 0.0000000000000000000, 1.000000000000000000, 0.0000000000000000000 ) ) ;
#80 = AXIS2_PLACEMENT_3D ( 'NONE', #13, #213, #105 ) ;
#81 = CARTESIAN_POINT ( 'NONE',  ( 2.793185071074506684E-14, 1.138499999999993628, 8.000000000000000000 ) ) ;
#82 = DIRECTION ( 'NONE',  ( 4.275831445896958607E-31, 1.000000000000000000, 1.224646799147353454E-16 ) ) ;
#83 = CARTESIAN_POINT ( 'NONE',  ( 1.745740669421566678E-13, 1.199999999999995515, 50.00000000000000000 ) ) ;
#84 = PERSON_AND_ORGANIZATION ( #303, #141 ) ;
#85 = DIRECTION ( 'NONE',  ( 0.0000000000000000000, 0.0000000000000000000, 1.000000000000000000 ) ) ;
#86 = EDGE_CURVE ( 'NONE', #54, #54, #241, .T. ) ;
#87 = VERTEX_POINT ( 'NONE', #18 ) ;
#88 = CIRCLE ( 'NONE', #23, 1.138499999999994738 ) ;
#89 = DATE_AND_TIME ( #110, #58 ) ;
#90 = CC_DESIGN_DATE_AND_TIME_ASSIGNMENT ( #60, #66, ( #204 ) ) ;
#91 = ORIENTED_EDGE ( 'NONE', *, *, #2, .F. ) ;
#92 = AXIS2_PLACEMENT_3D ( 'NONE', #205, #209, #256 ) ;
#93 = APPROVAL_STATUS ( 'not_yet_approved' ) ;
#94 = CARTESIAN_POINT ( 'NONE',  ( 1.735266225405037467E-13, -6.086494591762345225E-15, 49.70000000000000284 ) ) ;
#95 = DATE_TIME_ROLE ( 'classification_date' ) ;
#96 = ORIENTED_EDGE ( 'NONE', *, *, #133, .T. ) ;
#97 = ORIENTED_EDGE ( 'NONE', *, *, #267, .F. ) ;
#98 = CONICAL_SURFACE ( 'NONE', #263, 1.499999999999996669, 0.1745329251994261477 ) ;
#99 = DIRECTION ( 'NONE',  ( 5.074914214459147757E-31, 1.000000000000000000, 1.428461360323465704E-16 ) ) ;
#100 = APPROVAL_PERSON_ORGANIZATION ( #198, #131, #69 ) ;
#101 = EDGE_LOOP ( 'NONE', ( #156 ) ) ;
#102 = FACE_OUTER_BOUND ( 'NONE', #39, .T. ) ;
#103 = CARTESIAN_POINT ( 'NONE',  ( -1.892735826383161356E-31, 0.9941624327025893049, -5.421010862427522170E-17 ) ) ;
#104 = FACE_OUTER_BOUND ( 'NONE', #269, .T. ) ;
#105 = DIRECTION ( 'NONE',  ( 0.0000000000000000000, 1.000000000000000000, 0.0000000000000000000 ) ) ;
#106 = CARTESIAN_POINT ( 'NONE',  ( 0.0000000000000000000, 0.0000000000000000000, 0.0000000000000000000 ) ) ;
#107 = AXIS2_PLACEMENT_3D ( 'NONE', #36, #85, #152 ) ;
#108 = PERSON_AND_ORGANIZATION ( #303, #141 ) ;
#109 = ADVANCED_FACE ( 'NONE', ( #140, #232 ), #7, .T. ) ;
#110 = CALENDAR_DATE ( 2021, 30, 11 ) ;
#111 = CIRCLE ( 'NONE', #80, 1.138499999999994738 ) ;
#112 = APPLICATION_PROTOCOL_DEFINITION ( 'international standard', 'config_control_design', 1994, #249 ) ;
#113 =( NAMED_UNIT ( * ) SI_UNIT ( $, .STERADIAN. ) SOLID_ANGLE_UNIT ( ) );
#114 = CARTESIAN_POINT ( 'NONE',  ( -6.143606818462311839E-31, 2.154887194082108811E-32, -1.759598927284524154E-16 ) ) ;
#115 = AXIS2_PLACEMENT_3D ( 'NONE', #208, #189, #281 ) ;
#116 = DATE_AND_TIME ( #16, #217 ) ;
#117 = EDGE_LOOP ( 'NONE', ( #158 ) ) ;
#118 = EDGE_CURVE ( 'NONE', #9, #9, #37, .T. ) ;
#119 = ORIENTED_EDGE ( 'NONE', *, *, #2, .T. ) ;
#120 = ORIENTED_EDGE ( 'NONE', *, *, #118, .T. ) ;
#121 = ADVANCED_BREP_SHAPE_REPRESENTATION ( '956015', ( #20, #129, #107 ), #197 ) ;
#122 = FACE_BOUND ( 'NONE', #26, .T. ) ;
#123 = CC_DESIGN_APPROVAL ( #293, ( #204 ) ) ;
#124 = DIRECTION ( 'NONE',  ( 3.491481338843133355E-15, -1.224646799147353207E-16, 1.000000000000000000 ) ) ;
#125 = FACE_OUTER_BOUND ( 'NONE', #275, .T. ) ;
#126 = DIRECTION ( 'NONE',  ( -3.491481338843133355E-15, 1.224646799147353207E-16, -1.000000000000000000 ) ) ;
#127 = AXIS2_PLACEMENT_3D ( 'NONE', #106, #10, #82 ) ;
#128 = DIRECTION ( 'NONE',  ( -3.491481338843133355E-15, 1.224646799147353207E-16, -1.000000000000000000 ) ) ;
#129 = MANIFOLD_SOLID_BREP ( 'Corps-Déplacer/Copier1[2]', #138 ) ;
#130 = DIRECTION ( 'NONE',  ( 0.0000000000000000000, 1.000000000000000000, 0.0000000000000000000 ) ) ;
#131 = APPROVAL ( #273, 'UNSPECIFIED' ) ;
#132 = CALENDAR_DATE ( 2021, 30, 11 ) ;
#133 = EDGE_CURVE ( 'NONE', #291, #291, #73, .T. ) ;
#134 = DATE_AND_TIME ( #43, #75 ) ;
#135 = DIRECTION ( 'NONE',  ( 4.275831445896958607E-31, 1.000000000000000000, 1.224646799147353207E-16 ) ) ;
#136 = PRODUCT_DEFINITION_SHAPE ( 'NONE', 'NONE',  #204 ) ;
#137 = CARTESIAN_POINT ( 'NONE',  ( 8.728703347107829444E-16, -3.061616997868381785E-17, 0.2499999999999998890 ) ) ;
#138 = CLOSED_SHELL ( 'NONE', ( #280, #64, #109, #296 ) ) ;
#139 = ORIENTED_EDGE ( 'NONE', *, *, #22, .F. ) ;
#140 = FACE_OUTER_BOUND ( 'NONE', #185, .T. ) ;
#141 = ORGANIZATION ( 'UNSPECIFIED', 'UNSPECIFIED', '' ) ;
#142 = CARTESIAN_POINT ( 'NONE',  ( 2.886013015238223984E-14, -1.012277099146737164E-15, 8.265869798961823278 ) ) ;
#143 = CARTESIAN_POINT ( 'NONE',  ( -3.071803409231155919E-31, 1.077443597041054405E-32, -8.797994636422620772E-17 ) ) ;
#144 = CARTESIAN_POINT ( 'NONE',  ( 1.735266225405037467E-13, 1.499999999999995559, 49.70000000000000284 ) ) ;
#145 = DIRECTION ( 'NONE',  ( 3.491481338843133355E-15, -1.224646799147353207E-16, 1.000000000000000000 ) ) ;
#146 = CC_DESIGN_PERSON_AND_ORGANIZATION_ASSIGNMENT ( #179, #225, ( #287 ) ) ;
#147 = VERTEX_POINT ( 'NONE', #83 ) ;
#148 = COORDINATED_UNIVERSAL_TIME_OFFSET ( 1, 0, .AHEAD. ) ;
#149 = SECURITY_CLASSIFICATION_LEVEL ( 'unclassified' ) ;
#150 = AXIS2_PLACEMENT_3D ( 'NONE', #159, #77, #99 ) ;
#151 = PRODUCT_DEFINITION_FORMATION_WITH_SPECIFIED_SOURCE ( 'ANY', '', #287, .NOT_KNOWN. ) ;
#152 = DIRECTION ( 'NONE',  ( 1.000000000000000000, 0.0000000000000000000, 0.0000000000000000000 ) ) ;
#153 = EDGE_LOOP ( 'NONE', ( #299 ) ) ;
#154 = CARTESIAN_POINT ( 'NONE',  ( 2.886013015238223984E-14, 0.9849999999999975442, 8.265869798961823278 ) ) ;
#155 = LOCAL_TIME ( 7, 45, 9.000000000000000000, #207 ) ;
#156 = ORIENTED_EDGE ( 'NONE', *, *, #267, .T. ) ;
#157 = ADVANCED_FACE ( 'NONE', ( #240, #125 ), #98, .T. ) ;
#158 = ORIENTED_EDGE ( 'NONE', *, *, #237, .F. ) ;
#159 = CARTESIAN_POINT ( 'NONE',  ( 8.728703347107829444E-16, -3.061616997868381785E-17, 0.2499999999999998890 ) ) ;
#160 = CIRCLE ( 'NONE', #115, 1.200000000000001732 ) ;
#161 = ORIENTED_EDGE ( 'NONE', *, *, #86, .T. ) ;
#162 = APPROVAL_DATE_TIME ( #71, #212 ) ;
#163 = PLANE ( 'NONE',  #270 ) ;
#164 = DIRECTION ( 'NONE',  ( -3.491481338843133355E-15, 1.224646799147353207E-16, -1.000000000000000000 ) ) ;
#165 = UNCERTAINTY_MEASURE_WITH_UNIT (LENGTH_MEASURE( 1.000000000000000082E-05 ), #228, 'distance_accuracy_value', 'NONE');
#166 = TOROIDAL_SURFACE ( 'NONE', #92, 2.985000000000000320, 2.000000000000000444 ) ;
#167 = FACE_OUTER_BOUND ( 'NONE', #186, .T. ) ;
#168 = EDGE_CURVE ( 'NONE', #262, #262, #111, .T. ) ;
#169 = DIRECTION ( 'NONE',  ( -3.491481338843133355E-15, 1.224646799147353207E-16, -1.000000000000000000 ) ) ;
#170 = PLANE ( 'NONE',  #210 ) ;
#171 = CARTESIAN_POINT ( 'NONE',  ( 8.728703347107835360E-16, 1.138499999999993628, 0.2500000000000000555 ) ) ;
#172 = CONICAL_SURFACE ( 'NONE', #276, 1.138499999999993628, 0.5235987755982925984 ) ;
#173 = APPROVAL_DATE_TIME ( #89, #293 ) ;
#174 = PERSON_AND_ORGANIZATION ( #303, #141 ) ;
#175 = ORIENTED_EDGE ( 'NONE', *, *, #133, .F. ) ;
#176 = APPROVAL_STATUS ( 'not_yet_approved' ) ;
#177 = ORIENTED_EDGE ( 'NONE', *, *, #237, .T. ) ;
#178 = CIRCLE ( 'NONE', #150, 1.138499999999993628 ) ;
#179 = PERSON_AND_ORGANIZATION ( #303, #141 ) ;
#180 = EDGE_LOOP ( 'NONE', ( #97 ) ) ;
#181 = ADVANCED_FACE ( 'NONE', ( #8, #167 ), #238, .T. ) ;
#182 = CC_DESIGN_SECURITY_CLASSIFICATION ( #231, ( #151 ) ) ;
#183 = SHAPE_DEFINITION_REPRESENTATION ( #136, #121 ) ;
#184 = DIRECTION ( 'NONE',  ( 0.0000000000000000000, 1.000000000000000000, 0.0000000000000000000 ) ) ;
#185 = EDGE_LOOP ( 'NONE', ( #139 ) ) ;
#186 = EDGE_LOOP ( 'NONE', ( #161 ) ) ;
#187 = AXIS2_PLACEMENT_3D ( 'NONE', #3, #44, #135 ) ;
#188 = ORIENTED_EDGE ( 'NONE', *, *, #22, .T. ) ;
#189 = DIRECTION ( 'NONE',  ( -3.491481338843133355E-15, 1.224646799147353207E-16, -1.000000000000000000 ) ) ;
#190 = CARTESIAN_POINT ( 'NONE',  ( 2.793185071074506684E-14, 8.537382562802568518E-33, 8.000000000000000000 ) ) ;
#191 = ADVANCED_FACE ( 'NONE', ( #102 ), #170, .F. ) ;
#192 = AXIS2_PLACEMENT_3D ( 'NONE', #258, #128, #79 ) ;
#193 = CARTESIAN_POINT ( 'NONE',  ( 7.365519911116439655E-14, 1.499999999999994005, 21.09568746415505558 ) ) ;
#194 = FACE_OUTER_BOUND ( 'NONE', #45, .T. ) ;
#195 = DIRECTION ( 'NONE',  ( 0.0000000000000000000, 1.000000000000000000, 0.0000000000000000000 ) ) ;
#196 = CARTESIAN_POINT ( 'NONE',  ( 7.365519911116439655E-14, -2.583476612879043467E-15, 21.09568746415505558 ) ) ;
#197 =( GEOMETRIC_REPRESENTATION_CONTEXT ( 3 ) GLOBAL_UNCERTAINTY_ASSIGNED_CONTEXT ( ( #165 ) ) GLOBAL_UNIT_ASSIGNED_CONTEXT ( ( #228, #301, #113 ) ) REPRESENTATION_CONTEXT ( 'NONE', 'WORKASPACE' ) );
#198 = PERSON_AND_ORGANIZATION ( #303, #141 ) ;
#199 = PERSON_AND_ORGANIZATION ( #303, #141 ) ;
#200 = EDGE_LOOP ( 'NONE', ( #271 ) ) ;
#201 = VERTEX_POINT ( 'NONE', #40 ) ;
#202 = AXIS2_PLACEMENT_3D ( 'NONE', #190, #55, #59 ) ;
#203 = APPROVAL_ROLE ( '' ) ;
#204 = PRODUCT_DEFINITION ( 'UNKNOWN', '', #151, #216 ) ;
#205 = CARTESIAN_POINT ( 'NONE',  ( 6.284666409917640040E-14, -2.168404344971008868E-15, 18.00000000000000000 ) ) ;
#206 = ORIENTED_EDGE ( 'NONE', *, *, #214, .F. ) ;
#207 = COORDINATED_UNIVERSAL_TIME_OFFSET ( 1, 0, .AHEAD. ) ;
#208 = CARTESIAN_POINT ( 'NONE',  ( 1.745740669421566678E-13, -6.123233995736766085E-15, 50.00000000000000000 ) ) ;
#209 = DIRECTION ( 'NONE',  ( -3.491481338843133355E-15, 1.224646799147353207E-16, -1.000000000000000000 ) ) ;
#210 = AXIS2_PLACEMENT_3D ( 'NONE', #56, #295, #11 ) ;
#211 = CARTESIAN_POINT ( 'NONE',  ( 2.793185071074506684E-14, 8.537382562802568518E-33, 8.000000000000000000 ) ) ;
#212 = APPROVAL ( #93, 'UNSPECIFIED' ) ;
#213 = DIRECTION ( 'NONE',  ( -3.491481338843133355E-15, 1.224646799147353207E-16, -1.000000000000000000 ) ) ;
#214 = EDGE_CURVE ( 'NONE', #244, #244, #88, .T. ) ;
#215 = DIRECTION ( 'NONE',  ( 0.0000000000000000000, 1.000000000000000000, 0.0000000000000000000 ) ) ;
#216 = DESIGN_CONTEXT ( 'detailed design', #249, 'design' ) ;
#217 = LOCAL_TIME ( 7, 45, 9.000000000000000000, #38 ) ;
#218 = PLANE ( 'NONE',  #202 ) ;
#219 = FACE_BOUND ( 'NONE', #101, .T. ) ;
#220 = FACE_OUTER_BOUND ( 'NONE', #4, .T. ) ;
#221 = EDGE_LOOP ( 'NONE', ( #177 ) ) ;
#222 = PERSON_AND_ORGANIZATION ( #303, #141 ) ;
#223 = APPLICATION_CONTEXT ( 'configuration controlled 3d designs of mechanical parts and assemblies' ) ;
#224 = ADVANCED_FACE ( 'NONE', ( #242, #35 ), #260, .T. ) ;
#225 = PERSON_AND_ORGANIZATION_ROLE ( 'design_owner' ) ;
#226 = CC_DESIGN_PERSON_AND_ORGANIZATION_ASSIGNMENT ( #174, #268, ( #151 ) ) ;
#227 = CC_DESIGN_APPROVAL ( #131, ( #151 ) ) ;
#228 =( LENGTH_UNIT ( ) NAMED_UNIT ( * ) SI_UNIT ( .MILLI., .METRE. ) );
#229 = DIRECTION ( 'NONE',  ( 4.275831445896958607E-31, 1.000000000000000000, 1.224646799147353207E-16 ) ) ;
#230 = DIRECTION ( 'NONE',  ( 0.0000000000000000000, 1.000000000000000000, 0.0000000000000000000 ) ) ;
#231 = SECURITY_CLASSIFICATION ( '', '', #149 ) ;
#232 = FACE_OUTER_BOUND ( 'NONE', #67, .T. ) ;
#233 = FACE_OUTER_BOUND ( 'NONE', #200, .T. ) ;
#234 = FACE_BOUND ( 'NONE', #72, .T. ) ;
#235 = EDGE_CURVE ( 'NONE', #201, #201, #42, .T. ) ;
#236 = AXIS2_PLACEMENT_3D ( 'NONE', #114, #70, #229 ) ;
#237 = EDGE_CURVE ( 'NONE', #87, #87, #294, .T. ) ;
#238 = CYLINDRICAL_SURFACE ( 'NONE', #127, 1.499999999999999112 ) ;
#239 = DIRECTION ( 'NONE',  ( 4.275831445896959482E-31, 1.000000000000000000, 1.224646799147353207E-16 ) ) ;
#240 = FACE_BOUND ( 'NONE', #117, .T. ) ;
#241 = CIRCLE ( 'NONE', #6, 1.500000000000001554 ) ;
#242 = FACE_OUTER_BOUND ( 'NONE', #180, .T. ) ;
#243 = DIRECTION ( 'NONE',  ( -3.491481338843133355E-15, 1.224646799147353207E-16, -1.000000000000000000 ) ) ;
#244 = VERTEX_POINT ( 'NONE', #248 ) ;
#245 = PERSON_AND_ORGANIZATION_ROLE ( 'classification_officer' ) ;
#246 = ADVANCED_FACE ( 'NONE', ( #194, #219 ), #300, .T. ) ;
#247 = AXIS2_PLACEMENT_3D ( 'NONE', #21, #279, #230 ) ;
#248 = CARTESIAN_POINT ( 'NONE',  ( 2.793185071074506684E-14, 1.138499999999993628, 8.000000000000000000 ) ) ;
#249 = APPLICATION_CONTEXT ( 'configuration controlled 3d designs of mechanical parts and assemblies' ) ;
#250 = VERTEX_POINT ( 'NONE', #154 ) ;
#251 = EDGE_LOOP ( 'NONE', ( #175 ) ) ;
#252 = AXIS2_PLACEMENT_3D ( 'NONE', #143, #124, #261 ) ;
#253 = FACE_OUTER_BOUND ( 'NONE', #254, .T. ) ;
#254 = EDGE_LOOP ( 'NONE', ( #188 ) ) ;
#255 = FACE_OUTER_BOUND ( 'NONE', #221, .T. ) ;
#256 = DIRECTION ( 'NONE',  ( 4.275831445896957731E-31, 1.000000000000000000, 1.224646799147353207E-16 ) ) ;
#257 = DIRECTION ( 'NONE',  ( -3.491481338843133355E-15, 1.224646799147353207E-16, -1.000000000000000000 ) ) ;
#258 = CARTESIAN_POINT ( 'NONE',  ( 6.284666409917640040E-14, -2.204364238465235428E-15, 18.00000000000000000 ) ) ;
#259 = CIRCLE ( 'NONE', #14, 0.9849999999999986544 ) ;
#260 = CYLINDRICAL_SURFACE ( 'NONE', #17, 0.9849999999999993205 ) ;
#261 = DIRECTION ( 'NONE',  ( -4.275831445896958607E-31, -1.000000000000000000, -1.224646799147353207E-16 ) ) ;
#262 = VERTEX_POINT ( 'NONE', #81 ) ;
#263 = AXIS2_PLACEMENT_3D ( 'NONE', #196, #145, #29 ) ;
#264 = APPROVAL_PERSON_ORGANIZATION ( #46, #212, #49 ) ;
#265 = CARTESIAN_POINT ( 'NONE',  ( 2.886013015238223984E-14, -1.012277099146737164E-15, 8.265869798961823278 ) ) ;
#266 = PERSON_AND_ORGANIZATION_ROLE ( 'creator' ) ;
#267 = EDGE_CURVE ( 'NONE', #250, #250, #259, .T. ) ;
#268 = PERSON_AND_ORGANIZATION_ROLE ( 'design_supplier' ) ;
#269 = EDGE_LOOP ( 'NONE', ( #120 ) ) ;
#270 = AXIS2_PLACEMENT_3D ( 'NONE', #211, #50, #25 ) ;
#271 = ORIENTED_EDGE ( 'NONE', *, *, #86, .F. ) ;
#272 = COORDINATED_UNIVERSAL_TIME_OFFSET ( 1, 0, .AHEAD. ) ;
#273 = APPROVAL_STATUS ( 'not_yet_approved' ) ;
#274 = EDGE_LOOP ( 'NONE', ( #298 ) ) ;
#275 = EDGE_LOOP ( 'NONE', ( #96 ) ) ;
#276 = AXIS2_PLACEMENT_3D ( 'NONE', #137, #283, #74 ) ;
#277 = CC_DESIGN_APPROVAL ( #212, ( #231 ) ) ;
#278 = PRODUCT_RELATED_PRODUCT_CATEGORY ( 'detail', '', ( #287 ) ) ;
#279 = DIRECTION ( 'NONE',  ( -3.491481338843133355E-15, 1.224646799147353207E-16, -1.000000000000000000 ) ) ;
#280 = ADVANCED_FACE ( 'NONE', ( #104 ), #28, .F. ) ;
#281 = DIRECTION ( 'NONE',  ( 0.0000000000000000000, 1.000000000000000000, 0.0000000000000000000 ) ) ;
#282 = CALENDAR_DATE ( 2021, 30, 11 ) ;
#283 = DIRECTION ( 'NONE',  ( 3.491481338843133355E-15, -1.224646799147353207E-16, 1.000000000000000000 ) ) ;
#284 = AXIS2_PLACEMENT_3D ( 'NONE', #76, #27, #24 ) ;
#285 = FACE_OUTER_BOUND ( 'NONE', #1, .T. ) ;
#286 = ORIENTED_EDGE ( 'NONE', *, *, #118, .F. ) ;
#287 = PRODUCT ( '956015', '956015', '', ( #41 ) ) ;
#288 = VERTEX_POINT ( 'NONE', #171 ) ;
#289 = LOCAL_TIME ( 7, 45, 9.000000000000000000, #272 ) ;
#290 = CARTESIAN_POINT ( 'NONE',  ( 2.793185071074506684E-14, -9.797174393178825657E-16, 8.000000000000000000 ) ) ;
#291 = VERTEX_POINT ( 'NONE', #193 ) ;
#292 = CARTESIAN_POINT ( 'NONE',  ( 0.0000000000000000000, 0.0000000000000000000, 0.0000000000000000000 ) ) ;
#293 = APPROVAL ( #176, 'UNSPECIFIED' ) ;
#294 = CIRCLE ( 'NONE', #57, 1.015384493975580726 ) ;
#295 = DIRECTION ( 'NONE',  ( -3.491481338843133355E-15, 1.224646799147353207E-16, -1.000000000000000000 ) ) ;
#296 = ADVANCED_FACE ( 'NONE', ( #220 ), #218, .T. ) ;
#297 = PERSON_AND_ORGANIZATION_ROLE ( 'creator' ) ;
#298 = ORIENTED_EDGE ( 'NONE', *, *, #235, .F. ) ;
#299 = ORIENTED_EDGE ( 'NONE', *, *, #235, .T. ) ;
#300 = CONICAL_SURFACE ( 'NONE', #32, 0.9849999999999986544, 0.5235987755982886016 ) ;
#301 =( NAMED_UNIT ( * ) PLANE_ANGLE_UNIT ( ) SI_UNIT ( $, .RADIAN. ) );
#302 = COORDINATED_UNIVERSAL_TIME_OFFSET ( 1, 0, .AHEAD. ) ;
#303 = PERSON ( 'UNSPECIFIED', 'UNSPECIFIED', 'UNSPECIFIED', ('UNSPECIFIED'), ('UNSPECIFIED'), ('UNSPECIFIED') ) ;
ENDSEC;
END-ISO-10303-21;
