ISO-10303-21;
HEADER;
FILE_DESCRIPTION (( 'STEP AP203' ),
    '1' );
FILE_NAME ('955902.step',
    '2021-11-26T14:47:26',
    ( '' ),
    ( '' ),
    'SwSTEP 2.0',
    'SolidWorks 2019',
    '' );
FILE_SCHEMA (( 'CONFIG_CONTROL_DESIGN' ));
ENDSEC;

DATA;
#1 = EDGE_CURVE ( 'NONE', #25, #25, #203, .T. ) ;
#2 = DIRECTION ( 'NONE',  ( -3.491481338843133355E-15, 1.224646799147352961E-16, -1.000000000000000000 ) ) ;
#3 = APPROVAL_STATUS ( 'not_yet_approved' ) ;
#4 = ORIENTED_EDGE ( 'NONE', *, *, #127, .F. ) ;
#5 = COORDINATED_UNIVERSAL_TIME_OFFSET ( 1, 0, .AHEAD. ) ;
#6 = COORDINATED_UNIVERSAL_TIME_OFFSET ( 1, 0, .AHEAD. ) ;
#7 = ADVANCED_BREP_SHAPE_REPRESENTATION ( '955902', ( #206, #212, #59 ), #44 ) ;
#8 = CIRCLE ( 'NONE', #147, 1.499999999999997113 ) ;
#9 = PERSON_AND_ORGANIZATION_ROLE ( 'design_owner' ) ;
#10 = ADVANCED_FACE ( 'NONE', ( #144, #183 ), #162, .T. ) ;
#11 = APPLICATION_CONTEXT ( 'configuration controlled 3d designs of mechanical parts and assemblies' ) ;
#12 = CARTESIAN_POINT ( 'NONE',  ( 0.0000000000000000000, 0.0000000000000000000, 0.0000000000000000000 ) ) ;
#13 = EDGE_CURVE ( 'NONE', #131, #131, #143, .T. ) ;
#14 = FACE_OUTER_BOUND ( 'NONE', #46, .T. ) ;
#15 = CIRCLE ( 'NONE', #172, 0.3584999999999993192 ) ;
#16 = CARTESIAN_POINT ( 'NONE',  ( 1.396592535537253342E-14, -4.898587196589411843E-16, 4.000000000000000000 ) ) ;
#17 = CARTESIAN_POINT ( 'NONE',  ( 1.326762908760390423E-13, 8.998558695971099120E-33, 38.00000000000000000 ) ) ;
#18 = PLANE ( 'NONE',  #55 ) ;
#19 = CARTESIAN_POINT ( 'NONE',  ( 1.326762908760390423E-13, 1.199999999999998845, 38.00000000000000000 ) ) ;
#20 = EDGE_LOOP ( 'NONE', ( #66 ) ) ;
#21 = ADVANCED_FACE ( 'NONE', ( #40 ), #18, .F. ) ;
#22 = DIRECTION ( 'NONE',  ( 0.0000000000000000000, -1.000000000000000000, 0.0000000000000000000 ) ) ;
#23 = ORIENTED_EDGE ( 'NONE', *, *, #139, .T. ) ;
#24 = AXIS2_PLACEMENT_3D ( 'NONE', #80, #191, #149 ) ;
#25 = VERTEX_POINT ( 'NONE', #236 ) ;
#26 = CYLINDRICAL_SURFACE ( 'NONE', #28, 0.3584999999999995968 ) ;
#27 = PERSON_AND_ORGANIZATION ( #175, #229 ) ;
#28 = AXIS2_PLACEMENT_3D ( 'NONE', #224, #112, #200 ) ;
#29 = DIRECTION ( 'NONE',  ( 1.000000000000000000, 0.0000000000000000000, 0.0000000000000000000 ) ) ;
#30 = ADVANCED_FACE ( 'NONE', ( #174 ), #132, .T. ) ;
#31 = ADVANCED_FACE ( 'NONE', ( #129, #100 ), #281, .T. ) ;
#32 = CC_DESIGN_PERSON_AND_ORGANIZATION_ASSIGNMENT ( #118, #52, ( #81 ) ) ;
#33 = SECURITY_CLASSIFICATION_LEVEL ( 'unclassified' ) ;
#34 = DIRECTION ( 'NONE',  ( -3.491481338843133355E-15, 1.224646799147352961E-16, -1.000000000000000000 ) ) ;
#35 = CARTESIAN_POINT ( 'NONE',  ( 3.491481338843132862E-16, -1.224646799147352653E-17, 0.09999999999999997780 ) ) ;
#36 = CLOSED_SHELL ( 'NONE', ( #196, #31, #160, #30 ) ) ;
#37 = EDGE_CURVE ( 'NONE', #65, #65, #166, .T. ) ;
#38 = DIRECTION ( 'NONE',  ( 4.029142143069539146E-31, 1.000000000000000000, 1.134102690884421136E-16 ) ) ;
#39 = DIRECTION ( 'NONE',  ( 0.0000000000000000000, 1.000000000000000000, 0.0000000000000000000 ) ) ;
#40 = FACE_OUTER_BOUND ( 'NONE', #243, .T. ) ;
#41 = VERTEX_POINT ( 'NONE', #99 ) ;
#42 = CARTESIAN_POINT ( 'NONE',  ( 5.114582163501659822E-14, -1.793953931766914691E-15, 14.64874552414570452 ) ) ;
#43 = FACE_OUTER_BOUND ( 'NONE', #178, .T. ) ;
#44 =( GEOMETRIC_REPRESENTATION_CONTEXT ( 3 ) GLOBAL_UNCERTAINTY_ASSIGNED_CONTEXT ( ( #133 ) ) GLOBAL_UNIT_ASSIGNED_CONTEXT ( ( #141, #186, #211 ) ) REPRESENTATION_CONTEXT ( 'NONE', 'WORKASPACE' ) );
#45 = CARTESIAN_POINT ( 'NONE',  ( 3.491481338843134341E-16, 0.3584999999999993192, 0.1000000000000000194 ) ) ;
#46 = EDGE_LOOP ( 'NONE', ( #140 ) ) ;
#47 = APPLICATION_PROTOCOL_DEFINITION ( 'international standard', 'config_control_design', 1994, #225 ) ;
#48 = CALENDAR_DATE ( 2021, 26, 11 ) ;
#49 = MECHANICAL_CONTEXT ( 'NONE', #225, 'mechanical' ) ;
#50 = CC_DESIGN_PERSON_AND_ORGANIZATION_ASSIGNMENT ( #86, #111, ( #241 ) ) ;
#51 = DATE_AND_TIME ( #164, #179 ) ;
#52 = PERSON_AND_ORGANIZATION_ROLE ( 'creator' ) ;
#53 = APPROVAL_DATE_TIME ( #126, #271 ) ;
#54 = APPROVAL_PERSON_ORGANIZATION ( #27, #271, #181 ) ;
#55 = AXIS2_PLACEMENT_3D ( 'NONE', #280, #67, #120 ) ;
#56 = CC_DESIGN_DATE_AND_TIME_ASSIGNMENT ( #199, #93, ( #241 ) ) ;
#57 = CARTESIAN_POINT ( 'NONE',  ( 1.396592535537253342E-14, -4.898587196589411843E-16, 4.000000000000000000 ) ) ;
#58 = DIRECTION ( 'NONE',  ( -3.491481338843133355E-15, 1.224646799147352961E-16, -1.000000000000000000 ) ) ;
#59 = AXIS2_PLACEMENT_3D ( 'NONE', #12, #184, #29 ) ;
#60 = VERTEX_POINT ( 'NONE', #152 ) ;
#61 = AXIS2_PLACEMENT_3D ( 'NONE', #17, #128, #276 ) ;
#62 = DIRECTION ( 'NONE',  ( 0.0000000000000000000, 1.000000000000000000, 0.0000000000000000000 ) ) ;
#63 = CYLINDRICAL_SURFACE ( 'NONE', #272, 0.3585000000000001519 ) ;
#64 = CC_DESIGN_DATE_AND_TIME_ASSIGNMENT ( #208, #97, ( #83 ) ) ;
#65 = VERTEX_POINT ( 'NONE', #19 ) ;
#66 = ORIENTED_EDGE ( 'NONE', *, *, #1, .T. ) ;
#67 = DIRECTION ( 'NONE',  ( 3.491481338843133355E-15, -1.224646799147352961E-16, 1.000000000000000000 ) ) ;
#68 = PERSON_AND_ORGANIZATION ( #175, #229 ) ;
#69 = ORIENTED_EDGE ( 'NONE', *, *, #37, .F. ) ;
#70 = APPLICATION_PROTOCOL_DEFINITION ( 'international standard', 'config_control_design', 1994, #11 ) ;
#71 = CC_DESIGN_APPROVAL ( #102, ( #81 ) ) ;
#72 = CIRCLE ( 'NONE', #234, 0.3584999999999998743 ) ;
#73 = APPROVAL_ROLE ( '' ) ;
#74 = PRODUCT ( '955902', '955902', '', ( #49 ) ) ;
#75 = DIRECTION ( 'NONE',  ( -3.491481338843133355E-15, 1.224646799147352961E-16, -1.000000000000000000 ) ) ;
#76 = EDGE_LOOP ( 'NONE', ( #4 ) ) ;
#77 = AXIS2_PLACEMENT_3D ( 'NONE', #146, #75, #251 ) ;
#78 = ORIENTED_EDGE ( 'NONE', *, *, #185, .T. ) ;
#79 = DIRECTION ( 'NONE',  ( -4.029142143069539146E-31, -1.000000000000000000, -1.134102690884421136E-16 ) ) ;
#80 = CARTESIAN_POINT ( 'NONE',  ( 0.0000000000000000000, 0.0000000000000000000, 0.0000000000000000000 ) ) ;
#81 = PRODUCT_DEFINITION_FORMATION_WITH_SPECIFIED_SOURCE ( 'ANY', '', #74, .NOT_KNOWN. ) ;
#82 = CONICAL_SURFACE ( 'NONE', #122, 1.200000000000003286, 0.7853981633974453924 ) ;
#83 = PRODUCT_DEFINITION ( 'UNKNOWN', '', #81, #169 ) ;
#84 = DIRECTION ( 'NONE',  ( -3.491481338843133355E-15, 1.224646799147352961E-16, -1.000000000000000000 ) ) ;
#85 = EDGE_LOOP ( 'NONE', ( #137 ) ) ;
#86 = PERSON_AND_ORGANIZATION ( #175, #229 ) ;
#87 = CARTESIAN_POINT ( 'NONE',  ( 9.463679131915806782E-32, 0.3007649730810376676, 2.710505431213761085E-17 ) ) ;
#88 = LOCAL_TIME ( 15, 47, 26.00000000000000000, #264 ) ;
#89 = FACE_OUTER_BOUND ( 'NONE', #239, .T. ) ;
#90 = CIRCLE ( 'NONE', #161, 0.3007649730810376676 ) ;
#91 = FACE_OUTER_BOUND ( 'NONE', #158, .T. ) ;
#92 = CC_DESIGN_PERSON_AND_ORGANIZATION_ASSIGNMENT ( #232, #9, ( #74 ) ) ;
#93 = DATE_TIME_ROLE ( 'classification_date' ) ;
#94 = DIRECTION ( 'NONE',  ( 0.0000000000000000000, 1.000000000000000000, 0.0000000000000000000 ) ) ;
#95 = CC_DESIGN_PERSON_AND_ORGANIZATION_ASSIGNMENT ( #250, #253, ( #81 ) ) ;
#96 = PRODUCT_DEFINITION_SHAPE ( 'NONE', 'NONE',  #83 ) ;
#97 = DATE_TIME_ROLE ( 'creation_date' ) ;
#98 = VERTEX_POINT ( 'NONE', #123 ) ;
#99 = CARTESIAN_POINT ( 'NONE',  ( 2.793185071074506684E-14, 0.3584999999999994302, 8.000000000000000000 ) ) ;
#100 = FACE_OUTER_BOUND ( 'NONE', #171, .T. ) ;
#101 = CIRCLE ( 'NONE', #142, 1.500000000000003331 ) ;
#102 = APPROVAL ( #205, 'UNSPECIFIED' ) ;
#103 = CARTESIAN_POINT ( 'NONE',  ( 1.396592535537253342E-14, 2.688319410421370443E-33, 4.000000000000000000 ) ) ;
#104 = AXIS2_PLACEMENT_3D ( 'NONE', #42, #198, #22 ) ;
#105 = CC_DESIGN_SECURITY_CLASSIFICATION ( #241, ( #81 ) ) ;
#106 = DIRECTION ( 'NONE',  ( 0.0000000000000000000, 1.000000000000000000, 0.0000000000000000000 ) ) ;
#107 = ADVANCED_FACE ( 'NONE', ( #273 ), #188, .F. ) ;
#108 = AXIS2_PLACEMENT_3D ( 'NONE', #193, #194, #226 ) ;
#109 = DIRECTION ( 'NONE',  ( -4.275831445896957731E-31, -1.000000000000000000, -1.224646799147352961E-16 ) ) ;
#110 = FACE_OUTER_BOUND ( 'NONE', #20, .T. ) ;
#111 = PERSON_AND_ORGANIZATION_ROLE ( 'classification_officer' ) ;
#112 = DIRECTION ( 'NONE',  ( -3.491481338843133355E-15, 1.224646799147352961E-16, -1.000000000000000000 ) ) ;
#113 = ORIENTED_EDGE ( 'NONE', *, *, #254, .T. ) ;
#114 = CIRCLE ( 'NONE', #261, 0.3585000000000004294 ) ;
#115 = ORIENTED_EDGE ( 'NONE', *, *, #124, .T. ) ;
#116 = CALENDAR_DATE ( 2021, 26, 11 ) ;
#117 = EDGE_LOOP ( 'NONE', ( #23 ) ) ;
#118 = PERSON_AND_ORGANIZATION ( #175, #229 ) ;
#119 = APPROVAL_DATE_TIME ( #230, #222 ) ;
#120 = DIRECTION ( 'NONE',  ( -4.275831445896957731E-31, -1.000000000000000000, -1.224646799147352961E-16 ) ) ;
#121 = LOCAL_TIME ( 15, 47, 26.00000000000000000, #6 ) ;
#122 = AXIS2_PLACEMENT_3D ( 'NONE', #176, #217, #62 ) ;
#123 = CARTESIAN_POINT ( 'NONE',  ( 1.316288464743861212E-13, 1.499999999999998668, 37.69999999999999574 ) ) ;
#124 = EDGE_CURVE ( 'NONE', #242, #242, #15, .T. ) ;
#125 = ORIENTED_EDGE ( 'NONE', *, *, #244, .F. ) ;
#126 = DATE_AND_TIME ( #48, #88 ) ;
#127 = EDGE_CURVE ( 'NONE', #278, #278, #90, .T. ) ;
#128 = DIRECTION ( 'NONE',  ( -3.491481338843133355E-15, 1.224646799147352961E-16, -1.000000000000000000 ) ) ;
#129 = FACE_BOUND ( 'NONE', #76, .T. ) ;
#130 = AXIS2_PLACEMENT_3D ( 'NONE', #103, #155, #136 ) ;
#131 = VERTEX_POINT ( 'NONE', #215 ) ;
#132 = PLANE ( 'NONE',  #130 ) ;
#133 = UNCERTAINTY_MEASURE_WITH_UNIT (LENGTH_MEASURE( 1.000000000000000082E-05 ), #141, 'distance_accuracy_value', 'NONE');
#134 = FACE_OUTER_BOUND ( 'NONE', #207, .T. ) ;
#135 = DIRECTION ( 'NONE',  ( -3.491481338843133355E-15, 1.224646799147352961E-16, -1.000000000000000000 ) ) ;
#136 = DIRECTION ( 'NONE',  ( -4.275831445896957731E-31, -1.000000000000000000, -1.224646799147352961E-16 ) ) ;
#137 = ORIENTED_EDGE ( 'NONE', *, *, #124, .F. ) ;
#138 = LOCAL_TIME ( 15, 47, 26.00000000000000000, #5 ) ;
#139 = EDGE_CURVE ( 'NONE', #170, #170, #72, .T. ) ;
#140 = ORIENTED_EDGE ( 'NONE', *, *, #254, .F. ) ;
#141 =( LENGTH_UNIT ( ) NAMED_UNIT ( * ) SI_UNIT ( .MILLI., .METRE. ) );
#142 = AXIS2_PLACEMENT_3D ( 'NONE', #263, #135, #238 ) ;
#143 = CIRCLE ( 'NONE', #195, 0.3584999999999998743 ) ;
#144 = FACE_OUTER_BOUND ( 'NONE', #279, .T. ) ;
#145 = DIRECTION ( 'NONE',  ( -3.491481338843133355E-15, 1.224646799147352961E-16, -1.000000000000000000 ) ) ;
#146 = CARTESIAN_POINT ( 'NONE',  ( 2.914442945444142440E-14, -1.022248976309395884E-15, 8.347296355333845952 ) ) ;
#147 = AXIS2_PLACEMENT_3D ( 'NONE', #197, #2, #94 ) ;
#148 = CARTESIAN_POINT ( 'NONE',  ( 1.326762908760390423E-13, -4.653657836759941152E-15, 38.00000000000000000 ) ) ;
#149 = DIRECTION ( 'NONE',  ( 4.275831445896957731E-31, 1.000000000000000000, 1.224646799147353207E-16 ) ) ;
#150 = ADVANCED_FACE ( 'NONE', ( #14, #274 ), #82, .T. ) ;
#151 = DIRECTION ( 'NONE',  ( 4.275831445896957731E-31, 1.000000000000000000, 1.224646799147352961E-16 ) ) ;
#152 = CARTESIAN_POINT ( 'NONE',  ( 5.114582163501659822E-14, 1.499999999999995559, 14.64874552414570452 ) ) ;
#153 = ADVANCED_FACE ( 'NONE', ( #134, #110 ), #266, .F. ) ;
#154 = FACE_OUTER_BOUND ( 'NONE', #85, .T. ) ;
#155 = DIRECTION ( 'NONE',  ( 3.491481338843133355E-15, -1.224646799147352961E-16, 1.000000000000000000 ) ) ;
#156 = DIRECTION ( 'NONE',  ( -3.491481338843133355E-15, 1.224646799147352961E-16, -1.000000000000000000 ) ) ;
#157 = ORIENTED_EDGE ( 'NONE', *, *, #185, .F. ) ;
#158 = EDGE_LOOP ( 'NONE', ( #78 ) ) ;
#159 = PERSON_AND_ORGANIZATION_ROLE ( 'creator' ) ;
#160 = ADVANCED_FACE ( 'NONE', ( #154, #282 ), #26, .T. ) ;
#161 = AXIS2_PLACEMENT_3D ( 'NONE', #277, #145, #167 ) ;
#162 = CYLINDRICAL_SURFACE ( 'NONE', #24, 1.500000000000000222 ) ;
#163 = COORDINATED_UNIVERSAL_TIME_OFFSET ( 1, 0, .AHEAD. ) ;
#164 = CALENDAR_DATE ( 2021, 26, 11 ) ;
#165 = DIRECTION ( 'NONE',  ( 0.0000000000000000000, 1.000000000000000000, 0.0000000000000000000 ) ) ;
#166 = CIRCLE ( 'NONE', #210, 1.200000000000003286 ) ;
#167 = DIRECTION ( 'NONE',  ( 4.275831445896957731E-31, 1.000000000000000000, 1.224646799147352714E-16 ) ) ;
#168 = PRODUCT_RELATED_PRODUCT_CATEGORY ( 'detail', '', ( #74 ) ) ;
#169 = DESIGN_CONTEXT ( 'detailed design', #11, 'design' ) ;
#170 = VERTEX_POINT ( 'NONE', #256 ) ;
#171 = EDGE_LOOP ( 'NONE', ( #115 ) ) ;
#172 = AXIS2_PLACEMENT_3D ( 'NONE', #255, #235, #38 ) ;
#173 = FACE_OUTER_BOUND ( 'NONE', #233, .T. ) ;
#174 = FACE_OUTER_BOUND ( 'NONE', #187, .T. ) ;
#175 = PERSON ( 'UNSPECIFIED', 'UNSPECIFIED', 'UNSPECIFIED', ('UNSPECIFIED'), ('UNSPECIFIED'), ('UNSPECIFIED') ) ;
#176 = CARTESIAN_POINT ( 'NONE',  ( 1.326762908760390423E-13, -4.653657836759941152E-15, 38.00000000000000000 ) ) ;
#177 = DIRECTION ( 'NONE',  ( -3.491481338843133355E-15, 1.224646799147352961E-16, -1.000000000000000000 ) ) ;
#178 = EDGE_LOOP ( 'NONE', ( #249 ) ) ;
#179 = LOCAL_TIME ( 15, 47, 26.00000000000000000, #163 ) ;
#180 = CARTESIAN_POINT ( 'NONE',  ( 0.0000000000000000000, 0.0000000000000000000, 0.0000000000000000000 ) ) ;
#181 = APPROVAL_ROLE ( '' ) ;
#182 = COORDINATED_UNIVERSAL_TIME_OFFSET ( 1, 0, .AHEAD. ) ;
#183 = FACE_OUTER_BOUND ( 'NONE', #204, .T. ) ;
#184 = DIRECTION ( 'NONE',  ( 0.0000000000000000000, 0.0000000000000000000, 1.000000000000000000 ) ) ;
#185 = EDGE_CURVE ( 'NONE', #60, #60, #8, .T. ) ;
#186 =( NAMED_UNIT ( * ) PLANE_ANGLE_UNIT ( ) SI_UNIT ( $, .RADIAN. ) );
#187 = EDGE_LOOP ( 'NONE', ( #216 ) ) ;
#188 = PLANE ( 'NONE',  #61 ) ;
#189 = CLOSED_SHELL ( 'NONE', ( #21, #219, #153, #192, #10, #150, #107 ) ) ;
#190 = CC_DESIGN_APPROVAL ( #271, ( #241 ) ) ;
#191 = DIRECTION ( 'NONE',  ( -3.491481338843133355E-15, 1.224646799147352961E-16, -1.000000000000000000 ) ) ;
#192 = ADVANCED_FACE ( 'NONE', ( #260, #91 ), #201, .T. ) ;
#193 = CARTESIAN_POINT ( 'NONE',  ( 2.793185071074506684E-14, -8.673617379884035472E-16, 8.000000000000000000 ) ) ;
#194 = DIRECTION ( 'NONE',  ( -3.491481338843133355E-15, 1.224646799147352961E-16, -1.000000000000000000 ) ) ;
#195 = AXIS2_PLACEMENT_3D ( 'NONE', #16, #58, #39 ) ;
#196 = ADVANCED_FACE ( 'NONE', ( #173 ), #220, .F. ) ;
#197 = CARTESIAN_POINT ( 'NONE',  ( 5.114582163501659822E-14, -1.793953931766914691E-15, 14.64874552414570452 ) ) ;
#198 = DIRECTION ( 'NONE',  ( 3.491481338843133355E-15, -1.224646799147352961E-16, 1.000000000000000000 ) ) ;
#199 = DATE_AND_TIME ( #245, #121 ) ;
#200 = DIRECTION ( 'NONE',  ( 4.275831445896957731E-31, 1.000000000000000000, 1.224646799147352961E-16 ) ) ;
#201 = CONICAL_SURFACE ( 'NONE', #104, 1.499999999999997113, 0.1745329251994259812 ) ;
#202 = PERSON_AND_ORGANIZATION ( #175, #229 ) ;
#203 = CIRCLE ( 'NONE', #77, 0.3888844939755814467 ) ;
#204 = EDGE_LOOP ( 'NONE', ( #113 ) ) ;
#205 = APPROVAL_STATUS ( 'not_yet_approved' ) ;
#206 = MANIFOLD_SOLID_BREP ( 'Corps-Déplacer/Copier1[1]', #189 ) ;
#207 = EDGE_LOOP ( 'NONE', ( #125 ) ) ;
#208 = DATE_AND_TIME ( #116, #138 ) ;
#209 = LOCAL_TIME ( 15, 47, 26.00000000000000000, #182 ) ;
#210 = AXIS2_PLACEMENT_3D ( 'NONE', #148, #84, #165 ) ;
#211 =( NAMED_UNIT ( * ) SI_UNIT ( $, .STERADIAN. ) SOLID_ANGLE_UNIT ( ) );
#212 = MANIFOLD_SOLID_BREP ( 'Corps-Déplacer/Copier1[2]', #36 ) ;
#213 = APPROVAL_PERSON_ORGANIZATION ( #68, #102, #247 ) ;
#214 = DIRECTION ( 'NONE',  ( 0.0000000000000000000, 1.000000000000000000, 0.0000000000000000000 ) ) ;
#215 = CARTESIAN_POINT ( 'NONE',  ( 1.396592535537253342E-14, 0.3584999999999993747, 4.000000000000000000 ) ) ;
#216 = ORIENTED_EDGE ( 'NONE', *, *, #139, .F. ) ;
#217 = DIRECTION ( 'NONE',  ( -3.491481338843133355E-15, 1.224646799147352961E-16, -1.000000000000000000 ) ) ;
#218 = ORIENTED_EDGE ( 'NONE', *, *, #13, .T. ) ;
#219 = ADVANCED_FACE ( 'NONE', ( #43, #89 ), #63, .T. ) ;
#220 = PLANE ( 'NONE',  #221 ) ;
#221 = AXIS2_PLACEMENT_3D ( 'NONE', #283, #259, #109 ) ;
#222 = APPROVAL ( #267, 'UNSPECIFIED' ) ;
#223 = APPROVAL_PERSON_ORGANIZATION ( #265, #222, #73 ) ;
#224 = CARTESIAN_POINT ( 'NONE',  ( 0.0000000000000000000, 0.0000000000000000000, 0.0000000000000000000 ) ) ;
#225 = APPLICATION_CONTEXT ( 'configuration controlled 3d designs of mechanical parts and assemblies' ) ;
#226 = DIRECTION ( 'NONE',  ( 4.275831445896957731E-31, 1.000000000000000000, 1.224646799147352961E-16 ) ) ;
#227 = ORIENTED_EDGE ( 'NONE', *, *, #37, .T. ) ;
#228 = CALENDAR_DATE ( 2021, 26, 11 ) ;
#229 = ORGANIZATION ( 'UNSPECIFIED', 'UNSPECIFIED', '' ) ;
#230 = DATE_AND_TIME ( #228, #209 ) ;
#231 = ORIENTED_EDGE ( 'NONE', *, *, #1, .F. ) ;
#232 = PERSON_AND_ORGANIZATION ( #175, #229 ) ;
#233 = EDGE_LOOP ( 'NONE', ( #269 ) ) ;
#234 = AXIS2_PLACEMENT_3D ( 'NONE', #57, #34, #214 ) ;
#235 = DIRECTION ( 'NONE',  ( -3.491481338843133355E-15, 1.224646799147352961E-16, -1.000000000000000000 ) ) ;
#236 = CARTESIAN_POINT ( 'NONE',  ( 2.914442945444142440E-14, 0.3888844939755804475, 8.347296355333845952 ) ) ;
#237 = EDGE_LOOP ( 'NONE', ( #231 ) ) ;
#238 = DIRECTION ( 'NONE',  ( 0.0000000000000000000, 1.000000000000000000, 0.0000000000000000000 ) ) ;
#239 = EDGE_LOOP ( 'NONE', ( #246 ) ) ;
#240 = CARTESIAN_POINT ( 'NONE',  ( 2.793185071074506684E-14, -9.797174393178823685E-16, 8.000000000000000000 ) ) ;
#241 = SECURITY_CLASSIFICATION ( '', '', #33 ) ;
#242 = VERTEX_POINT ( 'NONE', #45 ) ;
#243 = EDGE_LOOP ( 'NONE', ( #218 ) ) ;
#244 = EDGE_CURVE ( 'NONE', #41, #41, #114, .T. ) ;
#245 = CALENDAR_DATE ( 2021, 26, 11 ) ;
#246 = ORIENTED_EDGE ( 'NONE', *, *, #244, .T. ) ;
#247 = APPROVAL_ROLE ( '' ) ;
#248 = APPROVAL_DATE_TIME ( #51, #102 ) ;
#249 = ORIENTED_EDGE ( 'NONE', *, *, #13, .F. ) ;
#250 = PERSON_AND_ORGANIZATION ( #175, #229 ) ;
#251 = DIRECTION ( 'NONE',  ( 0.0000000000000000000, 1.000000000000000000, 0.0000000000000000000 ) ) ;
#252 = CC_DESIGN_PERSON_AND_ORGANIZATION_ASSIGNMENT ( #202, #159, ( #83 ) ) ;
#253 = PERSON_AND_ORGANIZATION_ROLE ( 'design_supplier' ) ;
#254 = EDGE_CURVE ( 'NONE', #98, #98, #101, .T. ) ;
#255 = CARTESIAN_POINT ( 'NONE',  ( 3.491481338843132862E-16, -1.224646799147352653E-17, 0.09999999999999997780 ) ) ;
#256 = CARTESIAN_POINT ( 'NONE',  ( 1.396592535537253342E-14, 0.3584999999999993747, 4.000000000000000000 ) ) ;
#257 = CC_DESIGN_APPROVAL ( #222, ( #83 ) ) ;
#258 = AXIS2_PLACEMENT_3D ( 'NONE', #35, #275, #79 ) ;
#259 = DIRECTION ( 'NONE',  ( 3.491481338843133355E-15, -1.224646799147352961E-16, 1.000000000000000000 ) ) ;
#260 = FACE_BOUND ( 'NONE', #237, .T. ) ;
#261 = AXIS2_PLACEMENT_3D ( 'NONE', #240, #177, #106 ) ;
#262 = EDGE_LOOP ( 'NONE', ( #227 ) ) ;
#263 = CARTESIAN_POINT ( 'NONE',  ( 1.316288464743861212E-13, -4.616918432785520292E-15, 37.69999999999999574 ) ) ;
#264 = COORDINATED_UNIVERSAL_TIME_OFFSET ( 1, 0, .AHEAD. ) ;
#265 = PERSON_AND_ORGANIZATION ( #175, #229 ) ;
#266 = TOROIDAL_SURFACE ( 'NONE', #108, 2.358500000000000263, 2.000000000000000000 ) ;
#267 = APPROVAL_STATUS ( 'not_yet_approved' ) ;
#268 = EDGE_LOOP ( 'NONE', ( #69 ) ) ;
#269 = ORIENTED_EDGE ( 'NONE', *, *, #127, .T. ) ;
#270 = SHAPE_DEFINITION_REPRESENTATION ( #96, #7 ) ;
#271 = APPROVAL ( #3, 'UNSPECIFIED' ) ;
#272 = AXIS2_PLACEMENT_3D ( 'NONE', #180, #156, #151 ) ;
#273 = FACE_OUTER_BOUND ( 'NONE', #268, .T. ) ;
#274 = FACE_BOUND ( 'NONE', #262, .T. ) ;
#275 = DIRECTION ( 'NONE',  ( 3.491481338843133355E-15, -1.224646799147352961E-16, 1.000000000000000000 ) ) ;
#276 = DIRECTION ( 'NONE',  ( 4.275831445896957731E-31, 1.000000000000000000, 1.224646799147352961E-16 ) ) ;
#277 = CARTESIAN_POINT ( 'NONE',  ( -3.396524165326720768E-32, 1.191340306195714864E-33, -9.728031845795641871E-18 ) ) ;
#278 = VERTEX_POINT ( 'NONE', #87 ) ;
#279 = EDGE_LOOP ( 'NONE', ( #157 ) ) ;
#280 = CARTESIAN_POINT ( 'NONE',  ( 1.396592535537253342E-14, 2.688319410421370443E-33, 4.000000000000000000 ) ) ;
#281 = CONICAL_SURFACE ( 'NONE', #258, 0.3584999999999993192, 0.5235987755982922653 ) ;
#282 = FACE_OUTER_BOUND ( 'NONE', #117, .T. ) ;
#283 = CARTESIAN_POINT ( 'NONE',  ( -1.698262082663360384E-32, 5.956701530978574320E-34, -4.864015922897820936E-18 ) ) ;
ENDSEC;
END-ISO-10303-21;
