ISO-10303-21;
HEADER;
FILE_DESCRIPTION (( 'STEP AP203' ),
    '1' );
FILE_NAME ('955757.step',
    '2021-11-29T14:58:43',
    ( '' ),
    ( '' ),
    'SwSTEP 2.0',
    'SolidWorks 2019',
    '' );
FILE_SCHEMA (( 'CONFIG_CONTROL_DESIGN' ));
ENDSEC;

DATA;
#1 = EDGE_LOOP ( 'NONE', ( #212 ) ) ;
#2 = CIRCLE ( 'NONE', #200, 1.499999999999997780 ) ;
#3 = FACE_OUTER_BOUND ( 'NONE', #46, .T. ) ;
#4 = CARTESIAN_POINT ( 'NONE',  ( 2.444036937190193349E-14, 0.7134999999999991349, 7.000000000000000000 ) ) ;
#5 = FACE_OUTER_BOUND ( 'NONE', #63, .T. ) ;
#6 = DIRECTION ( 'NONE',  ( 0.0000000000000000000, 1.000000000000000000, 0.0000000000000000000 ) ) ;
#7 = CIRCLE ( 'NONE', #90, 0.5691624327025947006 ) ;
#8 = EDGE_LOOP ( 'NONE', ( #105 ) ) ;
#9 = VERTEX_POINT ( 'NONE', #168 ) ;
#10 = APPROVAL_DATE_TIME ( #201, #163 ) ;
#11 = EDGE_CURVE ( 'NONE', #219, #219, #250, .T. ) ;
#12 = FACE_OUTER_BOUND ( 'NONE', #48, .T. ) ;
#13 = PERSON_AND_ORGANIZATION_ROLE ( 'design_supplier' ) ;
#14 = AXIS2_PLACEMENT_3D ( 'NONE', #289, #139, #71 ) ;
#15 = ORIENTED_EDGE ( 'NONE', *, *, #174, .T. ) ;
#16 = EDGE_CURVE ( 'NONE', #9, #9, #113, .T. ) ;
#17 = LOCAL_TIME ( 15, 58, 43.00000000000000000, #23 ) ;
#18 = ADVANCED_FACE ( 'NONE', ( #5, #209 ), #292, .T. ) ;
#19 =( NAMED_UNIT ( * ) PLANE_ANGLE_UNIT ( ) SI_UNIT ( $, .RADIAN. ) );
#20 = ORIENTED_EDGE ( 'NONE', *, *, #31, .T. ) ;
#21 = DIRECTION ( 'NONE',  ( -3.491481338843133355E-15, 1.224646799147352961E-16, -1.000000000000000000 ) ) ;
#22 = PRODUCT_DEFINITION_SHAPE ( 'NONE', 'NONE',  #264 ) ;
#23 = COORDINATED_UNIVERSAL_TIME_OFFSET ( 1, 0, .AHEAD. ) ;
#24 = EDGE_LOOP ( 'NONE', ( #97 ) ) ;
#25 = AXIS2_PLACEMENT_3D ( 'NONE', #303, #282, #134 ) ;
#26 = DIRECTION ( 'NONE',  ( -3.491481338843133355E-15, 1.224646799147352961E-16, -1.000000000000000000 ) ) ;
#27 = ADVANCED_FACE ( 'NONE', ( #3, #69 ), #76, .T. ) ;
#28 = DIRECTION ( 'NONE',  ( -3.491481338843133355E-15, 1.224646799147352961E-16, -1.000000000000000000 ) ) ;
#29 = DIRECTION ( 'NONE',  ( 0.0000000000000000000, 1.000000000000000000, 0.0000000000000000000 ) ) ;
#30 = CIRCLE ( 'NONE', #195, 0.7134999999999991349 ) ;
#31 = EDGE_CURVE ( 'NONE', #101, #101, #7, .T. ) ;
#32 = FACE_OUTER_BOUND ( 'NONE', #208, .T. ) ;
#33 = DIRECTION ( 'NONE',  ( 3.491481338843133355E-15, -1.224646799147352961E-16, 1.000000000000000000 ) ) ;
#34 = APPROVAL_PERSON_ORGANIZATION ( #83, #163, #143 ) ;
#35 = COORDINATED_UNIVERSAL_TIME_OFFSET ( 1, 0, .AHEAD. ) ;
#36 = CARTESIAN_POINT ( 'NONE',  ( 0.0000000000000000000, 0.5691624327025947006, 0.0000000000000000000 ) ) ;
#37 = PERSON_AND_ORGANIZATION ( #116, #176 ) ;
#38 = CARTESIAN_POINT ( 'NONE',  ( 2.444036937190193349E-14, 5.350393024646162155E-33, 7.000000000000000000 ) ) ;
#39 = COORDINATED_UNIVERSAL_TIME_OFFSET ( 1, 0, .AHEAD. ) ;
#40 = DIRECTION ( 'NONE',  ( -3.491481338843133355E-15, 1.224646799147352961E-16, -1.000000000000000000 ) ) ;
#41 = CONICAL_SURFACE ( 'NONE', #68, 1.499999999999997780, 0.1745329251994261754 ) ;
#42 = EDGE_LOOP ( 'NONE', ( #132 ) ) ;
#43 = ORIENTED_EDGE ( 'NONE', *, *, #11, .T. ) ;
#44 = CLOSED_SHELL ( 'NONE', ( #186, #269, #18, #301 ) ) ;
#45 = LOCAL_TIME ( 15, 58, 43.00000000000000000, #273 ) ;
#46 = EDGE_LOOP ( 'NONE', ( #179 ) ) ;
#47 = APPROVAL_STATUS ( 'not_yet_approved' ) ;
#48 = EDGE_LOOP ( 'NONE', ( #202 ) ) ;
#49 = DIRECTION ( 'NONE',  ( 0.0000000000000000000, 1.000000000000000000, 0.0000000000000000000 ) ) ;
#50 =( GEOMETRIC_REPRESENTATION_CONTEXT ( 3 ) GLOBAL_UNCERTAINTY_ASSIGNED_CONTEXT ( ( #171 ) ) GLOBAL_UNIT_ASSIGNED_CONTEXT ( ( #207, #19, #283 ) ) REPRESENTATION_CONTEXT ( 'NONE', 'WORKASPACE' ) );
#51 = DIRECTION ( 'NONE',  ( 0.0000000000000000000, 1.000000000000000000, 0.0000000000000000000 ) ) ;
#52 = DIRECTION ( 'NONE',  ( -3.491481338843133355E-15, 1.224646799147352961E-16, -1.000000000000000000 ) ) ;
#53 = EDGE_CURVE ( 'NONE', #124, #124, #2, .T. ) ;
#54 = EDGE_LOOP ( 'NONE', ( #112 ) ) ;
#55 = CONICAL_SURFACE ( 'NONE', #145, 0.7134999999999991349, 0.5235987755982930425 ) ;
#56 = DIRECTION ( 'NONE',  ( 4.275831445896957731E-31, 1.000000000000000000, 1.224646799147352961E-16 ) ) ;
#57 = DIRECTION ( 'NONE',  ( 4.275831445896957731E-31, 1.000000000000000000, 1.224646799147352961E-16 ) ) ;
#58 = DESIGN_CONTEXT ( 'detailed design', #276, 'design' ) ;
#59 = PERSON_AND_ORGANIZATION ( #116, #176 ) ;
#60 = PLANE ( 'NONE',  #165 ) ;
#61 = ADVANCED_FACE ( 'NONE', ( #183, #287 ), #227, .T. ) ;
#62 = PERSON_AND_ORGANIZATION ( #116, #176 ) ;
#63 = EDGE_LOOP ( 'NONE', ( #175 ) ) ;
#64 = ORIENTED_EDGE ( 'NONE', *, *, #99, .F. ) ;
#65 = EDGE_LOOP ( 'NONE', ( #280 ) ) ;
#66 = CARTESIAN_POINT ( 'NONE',  ( 1.326762908760390423E-13, 1.199999999999998845, 38.00000000000000000 ) ) ;
#67 = AXIS2_PLACEMENT_3D ( 'NONE', #232, #236, #72 ) ;
#68 = AXIS2_PLACEMENT_3D ( 'NONE', #142, #270, #224 ) ;
#69 = FACE_OUTER_BOUND ( 'NONE', #228, .T. ) ;
#70 = PERSON_AND_ORGANIZATION_ROLE ( 'design_owner' ) ;
#71 = DIRECTION ( 'NONE',  ( 4.275831445896957731E-31, 1.000000000000000000, 1.224646799147352961E-16 ) ) ;
#72 = DIRECTION ( 'NONE',  ( 4.275831445896957731E-31, 1.000000000000000000, 1.224646799147352961E-16 ) ) ;
#73 = CC_DESIGN_SECURITY_CLASSIFICATION ( #159, ( #87 ) ) ;
#74 = ORIENTED_EDGE ( 'NONE', *, *, #16, .T. ) ;
#75 = CC_DESIGN_PERSON_AND_ORGANIZATION_ASSIGNMENT ( #198, #13, ( #87 ) ) ;
#76 = CYLINDRICAL_SURFACE ( 'NONE', #88, 1.500000000000000444 ) ;
#77 = AXIS2_PLACEMENT_3D ( 'NONE', #154, #234, #6 ) ;
#78 = DIRECTION ( 'NONE',  ( -5.398542240749090847E-31, -1.000000000000000000, -1.519554551486343003E-16 ) ) ;
#79 = ADVANCED_FACE ( 'NONE', ( #185, #263 ), #288, .T. ) ;
#80 = DIRECTION ( 'NONE',  ( 0.0000000000000000000, 1.000000000000000000, 0.0000000000000000000 ) ) ;
#81 = DIRECTION ( 'NONE',  ( -3.491481338843133355E-15, 1.224646799147352961E-16, -1.000000000000000000 ) ) ;
#82 = AXIS2_PLACEMENT_3D ( 'NONE', #241, #33, #199 ) ;
#83 = PERSON_AND_ORGANIZATION ( #116, #176 ) ;
#84 = CARTESIAN_POINT ( 'NONE',  ( 8.728703347107831416E-16, -3.061616997868381785E-17, 0.2499999999999999445 ) ) ;
#85 = DATE_AND_TIME ( #225, #122 ) ;
#86 = APPLICATION_PROTOCOL_DEFINITION ( 'international standard', 'config_control_design', 1994, #178 ) ;
#87 = PRODUCT_DEFINITION_FORMATION_WITH_SPECIFIED_SOURCE ( 'ANY', '', #177, .NOT_KNOWN. ) ;
#88 = AXIS2_PLACEMENT_3D ( 'NONE', #162, #265, #115 ) ;
#89 = DIRECTION ( 'NONE',  ( 0.0000000000000000000, 1.000000000000000000, 0.0000000000000000000 ) ) ;
#90 = AXIS2_PLACEMENT_3D ( 'NONE', #138, #158, #93 ) ;
#91 = MECHANICAL_CONTEXT ( 'NONE', #178, 'mechanical' ) ;
#92 = VERTEX_POINT ( 'NONE', #155 ) ;
#93 = DIRECTION ( 'NONE',  ( 4.275831445896957731E-31, 1.000000000000000000, 1.224646799147352961E-16 ) ) ;
#94 = CARTESIAN_POINT ( 'NONE',  ( 1.326762908760390423E-13, -4.653657836759941152E-15, 38.00000000000000000 ) ) ;
#95 = CARTESIAN_POINT ( 'NONE',  ( 5.237222008264700033E-14, 0.6399999999999982370, 15.00000000000000000 ) ) ;
#96 = FACE_OUTER_BOUND ( 'NONE', #1, .T. ) ;
#97 = ORIENTED_EDGE ( 'NONE', *, *, #230, .F. ) ;
#98 = CARTESIAN_POINT ( 'NONE',  ( 5.237222008264700033E-14, -1.734723475976807094E-15, 15.00000000000000000 ) ) ;
#99 = EDGE_CURVE ( 'NONE', #136, #136, #251, .T. ) ;
#100 = CIRCLE ( 'NONE', #218, 0.6703844939755810861 ) ;
#101 = VERTEX_POINT ( 'NONE', #36 ) ;
#102 = PLANE ( 'NONE',  #82 ) ;
#103 = PERSON_AND_ORGANIZATION_ROLE ( 'creator' ) ;
#104 = APPROVAL_ROLE ( '' ) ;
#105 = ORIENTED_EDGE ( 'NONE', *, *, #118, .T. ) ;
#106 = CIRCLE ( 'NONE', #266, 0.7135000000000000231 ) ;
#107 = ORIENTED_EDGE ( 'NONE', *, *, #230, .T. ) ;
#108 = DIRECTION ( 'NONE',  ( -3.491481338843133355E-15, 1.224646799147352961E-16, -1.000000000000000000 ) ) ;
#109 = CC_DESIGN_PERSON_AND_ORGANIZATION_ASSIGNMENT ( #37, #123, ( #87 ) ) ;
#110 = CALENDAR_DATE ( 2021, 29, 11 ) ;
#111 = VERTEX_POINT ( 'NONE', #187 ) ;
#112 = ORIENTED_EDGE ( 'NONE', *, *, #221, .F. ) ;
#113 = CIRCLE ( 'NONE', #294, 0.6399999999999991251 ) ;
#114 = CIRCLE ( 'NONE', #274, 1.200000000000003286 ) ;
#115 = DIRECTION ( 'NONE',  ( 4.275831445896957731E-31, 1.000000000000000000, 1.224646799147353207E-16 ) ) ;
#116 = PERSON ( 'UNSPECIFIED', 'UNSPECIFIED', 'UNSPECIFIED', ('UNSPECIFIED'), ('UNSPECIFIED'), ('UNSPECIFIED') ) ;
#117 = CARTESIAN_POINT ( 'NONE',  ( 7.001216034561317649E-14, -2.455696014032128387E-15, 20.05227969192325332 ) ) ;
#118 = EDGE_CURVE ( 'NONE', #111, #111, #106, .T. ) ;
#119 = DIRECTION ( 'NONE',  ( 0.0000000000000000000, 1.000000000000000000, 0.0000000000000000000 ) ) ;
#120 = CARTESIAN_POINT ( 'NONE',  ( 2.444036937190193349E-14, -8.572527594031471218E-16, 7.000000000000000000 ) ) ;
#121 = CARTESIAN_POINT ( 'NONE',  ( 1.326762908760390423E-13, 8.998558695971099120E-33, 38.00000000000000000 ) ) ;
#122 = LOCAL_TIME ( 15, 58, 43.00000000000000000, #35 ) ;
#123 = PERSON_AND_ORGANIZATION_ROLE ( 'creator' ) ;
#124 = VERTEX_POINT ( 'NONE', #222 ) ;
#125 = APPROVAL ( #128, 'UNSPECIFIED' ) ;
#126 = PERSON_AND_ORGANIZATION_ROLE ( 'classification_officer' ) ;
#127 = FACE_OUTER_BOUND ( 'NONE', #291, .T. ) ;
#128 = APPROVAL_STATUS ( 'not_yet_approved' ) ;
#129 = FACE_OUTER_BOUND ( 'NONE', #153, .T. ) ;
#130 = AXIS2_PLACEMENT_3D ( 'NONE', #248, #275, #293 ) ;
#131 = ORIENTED_EDGE ( 'NONE', *, *, #152, .T. ) ;
#132 = ORIENTED_EDGE ( 'NONE', *, *, #99, .T. ) ;
#133 = LOCAL_TIME ( 15, 58, 43.00000000000000000, #39 ) ;
#134 = DIRECTION ( 'NONE',  ( 1.000000000000000000, 0.0000000000000000000, 0.0000000000000000000 ) ) ;
#135 = EDGE_LOOP ( 'NONE', ( #137 ) ) ;
#136 = VERTEX_POINT ( 'NONE', #95 ) ;
#137 = ORIENTED_EDGE ( 'NONE', *, *, #53, .T. ) ;
#138 = CARTESIAN_POINT ( 'NONE',  ( -2.433642627572965320E-31, 8.536069263693373318E-33, -6.970229514041532769E-17 ) ) ;
#139 = DIRECTION ( 'NONE',  ( -3.491481338843133355E-15, 1.224646799147352961E-16, -1.000000000000000000 ) ) ;
#140 = ORIENTED_EDGE ( 'NONE', *, *, #152, .F. ) ;
#141 = FACE_BOUND ( 'NONE', #24, .T. ) ;
#142 = CARTESIAN_POINT ( 'NONE',  ( 7.001216034561317649E-14, -2.455696014032128387E-15, 20.05227969192325332 ) ) ;
#143 = APPROVAL_ROLE ( '' ) ;
#144 = DIRECTION ( 'NONE',  ( -4.275831445896957731E-31, -1.000000000000000000, -1.224646799147352961E-16 ) ) ;
#145 = AXIS2_PLACEMENT_3D ( 'NONE', #244, #300, #78 ) ;
#146 = DATE_TIME_ROLE ( 'creation_date' ) ;
#147 = CC_DESIGN_PERSON_AND_ORGANIZATION_ASSIGNMENT ( #59, #103, ( #264 ) ) ;
#148 = SHAPE_DEFINITION_REPRESENTATION ( #22, #204 ) ;
#149 = CARTESIAN_POINT ( 'NONE',  ( 5.358479882634335789E-14, -1.879501735712542907E-15, 15.34729635533384595 ) ) ;
#150 = ORIENTED_EDGE ( 'NONE', *, *, #221, .T. ) ;
#151 = ADVANCED_FACE ( 'NONE', ( #96, #237 ), #243, .T. ) ;
#152 = EDGE_CURVE ( 'NONE', #180, #180, #114, .T. ) ;
#153 = EDGE_LOOP ( 'NONE', ( #64 ) ) ;
#154 = CARTESIAN_POINT ( 'NONE',  ( 2.488485496773473420E-14, -8.728432154124037730E-16, 7.127305734356316869 ) ) ;
#155 = CARTESIAN_POINT ( 'NONE',  ( 8.728703347107835360E-16, 0.7134999999999991349, 0.2500000000000000555 ) ) ;
#156 = CARTESIAN_POINT ( 'NONE',  ( 5.237222008264700033E-14, -1.836970198721029194E-15, 15.00000000000000000 ) ) ;
#157 = CARTESIAN_POINT ( 'NONE',  ( 5.358479882634335789E-14, 0.6703844939755791987, 15.34729635533384595 ) ) ;
#158 = DIRECTION ( 'NONE',  ( -3.491481338843133355E-15, 1.224646799147352961E-16, -1.000000000000000000 ) ) ;
#159 = SECURITY_CLASSIFICATION ( '', '', #298 ) ;
#160 = APPROVAL ( #47, 'UNSPECIFIED' ) ;
#161 = CARTESIAN_POINT ( 'NONE',  ( 1.326762908760390423E-13, -4.653657836759941152E-15, 38.00000000000000000 ) ) ;
#162 = CARTESIAN_POINT ( 'NONE',  ( 0.0000000000000000000, 0.0000000000000000000, 0.0000000000000000000 ) ) ;
#163 = APPROVAL ( #172, 'UNSPECIFIED' ) ;
#164 = DIRECTION ( 'NONE',  ( 5.398542240749090847E-31, 1.000000000000000000, 1.519554551486343003E-16 ) ) ;
#165 = AXIS2_PLACEMENT_3D ( 'NONE', #38, #197, #144 ) ;
#166 = APPROVAL_DATE_TIME ( #85, #125 ) ;
#167 = CARTESIAN_POINT ( 'NONE',  ( 1.316288464743861212E-13, 1.499999999999998668, 37.69999999999999574 ) ) ;
#168 = CARTESIAN_POINT ( 'NONE',  ( 2.488485496773473420E-14, 0.6399999999999982370, 7.127305734356316869 ) ) ;
#169 = ADVANCED_FACE ( 'NONE', ( #254 ), #256, .F. ) ;
#170 = APPROVAL_PERSON_ORGANIZATION ( #62, #125, #104 ) ;
#171 = UNCERTAINTY_MEASURE_WITH_UNIT (LENGTH_MEASURE( 1.000000000000000082E-05 ), #207, 'distance_accuracy_value', 'NONE');
#172 = APPROVAL_STATUS ( 'not_yet_approved' ) ;
#173 = DIRECTION ( 'NONE',  ( -3.491481338843133355E-15, 1.224646799147352961E-16, -1.000000000000000000 ) ) ;
#174 = EDGE_CURVE ( 'NONE', #92, #92, #30, .T. ) ;
#175 = ORIENTED_EDGE ( 'NONE', *, *, #174, .F. ) ;
#176 = ORGANIZATION ( 'UNSPECIFIED', 'UNSPECIFIED', '' ) ;
#177 = PRODUCT ( '955757', '955757', '', ( #91 ) ) ;
#178 = APPLICATION_CONTEXT ( 'configuration controlled 3d designs of mechanical parts and assemblies' ) ;
#179 = ORIENTED_EDGE ( 'NONE', *, *, #53, .F. ) ;
#180 = VERTEX_POINT ( 'NONE', #66 ) ;
#181 = CC_DESIGN_DATE_AND_TIME_ASSIGNMENT ( #242, #146, ( #264 ) ) ;
#182 = AXIS2_PLACEMENT_3D ( 'NONE', #98, #81, #56 ) ;
#183 = FACE_OUTER_BOUND ( 'NONE', #54, .T. ) ;
#184 = PERSON_AND_ORGANIZATION ( #116, #176 ) ;
#185 = FACE_OUTER_BOUND ( 'NONE', #65, .T. ) ;
#186 = ADVANCED_FACE ( 'NONE', ( #246 ), #279, .F. ) ;
#187 = CARTESIAN_POINT ( 'NONE',  ( 2.444036937190193349E-14, 0.7134999999999991349, 7.000000000000000000 ) ) ;
#188 = DIRECTION ( 'NONE',  ( 0.0000000000000000000, 1.000000000000000000, 0.0000000000000000000 ) ) ;
#189 = EDGE_LOOP ( 'NONE', ( #107 ) ) ;
#190 = AXIS2_PLACEMENT_3D ( 'NONE', #120, #239, #297 ) ;
#191 = CARTESIAN_POINT ( 'NONE',  ( 1.316288464743861212E-13, -4.616918432785520292E-15, 37.69999999999999574 ) ) ;
#192 = CC_DESIGN_DATE_AND_TIME_ASSIGNMENT ( #223, #268, ( #159 ) ) ;
#193 = FACE_BOUND ( 'NONE', #255, .T. ) ;
#194 = CALENDAR_DATE ( 2021, 29, 11 ) ;
#195 = AXIS2_PLACEMENT_3D ( 'NONE', #84, #173, #164 ) ;
#196 = FACE_OUTER_BOUND ( 'NONE', #135, .T. ) ;
#197 = DIRECTION ( 'NONE',  ( 3.491481338843133355E-15, -1.224646799147352961E-16, 1.000000000000000000 ) ) ;
#198 = PERSON_AND_ORGANIZATION ( #116, #176 ) ;
#199 = DIRECTION ( 'NONE',  ( -4.275831445896957731E-31, -1.000000000000000000, -1.224646799147352961E-16 ) ) ;
#200 = AXIS2_PLACEMENT_3D ( 'NONE', #117, #21, #188 ) ;
#201 = DATE_AND_TIME ( #194, #206 ) ;
#202 = ORIENTED_EDGE ( 'NONE', *, *, #118, .F. ) ;
#203 = EDGE_LOOP ( 'NONE', ( #20 ) ) ;
#204 = ADVANCED_BREP_SHAPE_REPRESENTATION ( '955757', ( #285, #272, #25 ), #50 ) ;
#205 = EDGE_LOOP ( 'NONE', ( #140 ) ) ;
#206 = LOCAL_TIME ( 15, 58, 43.00000000000000000, #278 ) ;
#207 =( LENGTH_UNIT ( ) NAMED_UNIT ( * ) SI_UNIT ( .MILLI., .METRE. ) );
#208 = EDGE_LOOP ( 'NONE', ( #150 ) ) ;
#209 = FACE_OUTER_BOUND ( 'NONE', #8, .T. ) ;
#210 = PERSON_AND_ORGANIZATION ( #116, #176 ) ;
#211 = AXIS2_PLACEMENT_3D ( 'NONE', #121, #267, #57 ) ;
#212 = ORIENTED_EDGE ( 'NONE', *, *, #11, .F. ) ;
#213 = ADVANCED_FACE ( 'NONE', ( #32 ), #60, .F. ) ;
#214 = VERTEX_POINT ( 'NONE', #4 ) ;
#215 = DIRECTION ( 'NONE',  ( 0.0000000000000000000, 1.000000000000000000, 0.0000000000000000000 ) ) ;
#216 = CARTESIAN_POINT ( 'NONE',  ( 2.444036937190193349E-14, -8.572527594031471218E-16, 7.000000000000000000 ) ) ;
#217 = ORIENTED_EDGE ( 'NONE', *, *, #31, .F. ) ;
#218 = AXIS2_PLACEMENT_3D ( 'NONE', #149, #40, #80 ) ;
#219 = VERTEX_POINT ( 'NONE', #167 ) ;
#220 = APPROVAL_PERSON_ORGANIZATION ( #210, #160, #231 ) ;
#221 = EDGE_CURVE ( 'NONE', #214, #214, #233, .T. ) ;
#222 = CARTESIAN_POINT ( 'NONE',  ( 7.001216034561317649E-14, 1.499999999999995559, 20.05227969192325332 ) ) ;
#223 = DATE_AND_TIME ( #271, #45 ) ;
#224 = DIRECTION ( 'NONE',  ( 0.0000000000000000000, -1.000000000000000000, 0.0000000000000000000 ) ) ;
#225 = CALENDAR_DATE ( 2021, 29, 11 ) ;
#226 = FACE_OUTER_BOUND ( 'NONE', #189, .T. ) ;
#227 = CONICAL_SURFACE ( 'NONE', #77, 0.6399999999999991251, 0.5235987755982909331 ) ;
#228 = EDGE_LOOP ( 'NONE', ( #43 ) ) ;
#229 = CC_DESIGN_APPROVAL ( #160, ( #264 ) ) ;
#230 = EDGE_CURVE ( 'NONE', #235, #235, #100, .T. ) ;
#231 = APPROVAL_ROLE ( '' ) ;
#232 = CARTESIAN_POINT ( 'NONE',  ( 0.0000000000000000000, 0.0000000000000000000, 0.0000000000000000000 ) ) ;
#233 = CIRCLE ( 'NONE', #190, 0.7135000000000000231 ) ;
#234 = DIRECTION ( 'NONE',  ( -3.491481338843133355E-15, 1.224646799147352961E-16, -1.000000000000000000 ) ) ;
#235 = VERTEX_POINT ( 'NONE', #157 ) ;
#236 = DIRECTION ( 'NONE',  ( -3.491481338843133355E-15, 1.224646799147352961E-16, -1.000000000000000000 ) ) ;
#237 = FACE_BOUND ( 'NONE', #252, .T. ) ;
#238 = CC_DESIGN_APPROVAL ( #163, ( #159 ) ) ;
#239 = DIRECTION ( 'NONE',  ( -3.491481338843133355E-15, 1.224646799147352961E-16, -1.000000000000000000 ) ) ;
#240 = PERSON_AND_ORGANIZATION ( #116, #176 ) ;
#241 = CARTESIAN_POINT ( 'NONE',  ( 2.444036937190193349E-14, 5.350393024646162155E-33, 7.000000000000000000 ) ) ;
#242 = DATE_AND_TIME ( #245, #133 ) ;
#243 = CONICAL_SURFACE ( 'NONE', #290, 1.200000000000003286, 0.7853981633974453924 ) ;
#244 = CARTESIAN_POINT ( 'NONE',  ( 8.728703347107831416E-16, -3.061616997868381785E-17, 0.2499999999999999445 ) ) ;
#245 = CALENDAR_DATE ( 2021, 29, 11 ) ;
#246 = FACE_OUTER_BOUND ( 'NONE', #203, .T. ) ;
#247 = CC_DESIGN_PERSON_AND_ORGANIZATION_ASSIGNMENT ( #184, #70, ( #177 ) ) ;
#248 = CARTESIAN_POINT ( 'NONE',  ( -1.216821313786482660E-31, 4.268034631846686659E-33, -3.485114757020766385E-17 ) ) ;
#249 = EDGE_LOOP ( 'NONE', ( #74 ) ) ;
#250 = CIRCLE ( 'NONE', #253, 1.500000000000003331 ) ;
#251 = CIRCLE ( 'NONE', #261, 0.6400000000000000133 ) ;
#252 = EDGE_LOOP ( 'NONE', ( #131 ) ) ;
#253 = AXIS2_PLACEMENT_3D ( 'NONE', #191, #108, #51 ) ;
#254 = FACE_OUTER_BOUND ( 'NONE', #205, .T. ) ;
#255 = EDGE_LOOP ( 'NONE', ( #217 ) ) ;
#256 = PLANE ( 'NONE',  #211 ) ;
#257 = APPLICATION_PROTOCOL_DEFINITION ( 'international standard', 'config_control_design', 1994, #276 ) ;
#258 = ADVANCED_FACE ( 'NONE', ( #129, #226 ), #296, .F. ) ;
#259 = CARTESIAN_POINT ( 'NONE',  ( 2.488485496773473420E-14, -8.728432154124037730E-16, 7.127305734356316869 ) ) ;
#260 = DIRECTION ( 'NONE',  ( -3.491481338843133355E-15, 1.224646799147352961E-16, -1.000000000000000000 ) ) ;
#261 = AXIS2_PLACEMENT_3D ( 'NONE', #156, #260, #49 ) ;
#262 = DIRECTION ( 'NONE',  ( -3.491481338843133355E-15, 1.224646799147352961E-16, -1.000000000000000000 ) ) ;
#263 = FACE_OUTER_BOUND ( 'NONE', #42, .T. ) ;
#264 = PRODUCT_DEFINITION ( 'UNKNOWN', '', #87, #58 ) ;
#265 = DIRECTION ( 'NONE',  ( -3.491481338843133355E-15, 1.224646799147352961E-16, -1.000000000000000000 ) ) ;
#266 = AXIS2_PLACEMENT_3D ( 'NONE', #216, #262, #119 ) ;
#267 = DIRECTION ( 'NONE',  ( -3.491481338843133355E-15, 1.224646799147352961E-16, -1.000000000000000000 ) ) ;
#268 = DATE_TIME_ROLE ( 'classification_date' ) ;
#269 = ADVANCED_FACE ( 'NONE', ( #193, #127 ), #55, .T. ) ;
#270 = DIRECTION ( 'NONE',  ( 3.491481338843133355E-15, -1.224646799147352961E-16, 1.000000000000000000 ) ) ;
#271 = CALENDAR_DATE ( 2021, 29, 11 ) ;
#272 = MANIFOLD_SOLID_BREP ( 'Corps-Déplacer/Copier1[2]', #44 ) ;
#273 = COORDINATED_UNIVERSAL_TIME_OFFSET ( 1, 0, .AHEAD. ) ;
#274 = AXIS2_PLACEMENT_3D ( 'NONE', #94, #52, #29 ) ;
#275 = DIRECTION ( 'NONE',  ( 3.491481338843133355E-15, -1.224646799147352961E-16, 1.000000000000000000 ) ) ;
#276 = APPLICATION_CONTEXT ( 'configuration controlled 3d designs of mechanical parts and assemblies' ) ;
#277 = CC_DESIGN_PERSON_AND_ORGANIZATION_ASSIGNMENT ( #240, #126, ( #159 ) ) ;
#278 = COORDINATED_UNIVERSAL_TIME_OFFSET ( 1, 0, .AHEAD. ) ;
#279 = PLANE ( 'NONE',  #130 ) ;
#280 = ORIENTED_EDGE ( 'NONE', *, *, #16, .F. ) ;
#281 = ADVANCED_FACE ( 'NONE', ( #141, #196 ), #41, .T. ) ;
#282 = DIRECTION ( 'NONE',  ( 0.0000000000000000000, 0.0000000000000000000, 1.000000000000000000 ) ) ;
#283 =( NAMED_UNIT ( * ) SI_UNIT ( $, .STERADIAN. ) SOLID_ANGLE_UNIT ( ) );
#284 = CLOSED_SHELL ( 'NONE', ( #213, #61, #79, #258, #281, #27, #151, #169 ) ) ;
#285 = MANIFOLD_SOLID_BREP ( 'Corps-Déplacer/Copier1[1]', #284 ) ;
#286 = PRODUCT_RELATED_PRODUCT_CATEGORY ( 'detail', '', ( #177 ) ) ;
#287 = FACE_BOUND ( 'NONE', #249, .T. ) ;
#288 = CYLINDRICAL_SURFACE ( 'NONE', #14, 0.6399999999999994582 ) ;
#289 = CARTESIAN_POINT ( 'NONE',  ( 0.0000000000000000000, 0.0000000000000000000, 0.0000000000000000000 ) ) ;
#290 = AXIS2_PLACEMENT_3D ( 'NONE', #161, #26, #215 ) ;
#291 = EDGE_LOOP ( 'NONE', ( #15 ) ) ;
#292 = CYLINDRICAL_SURFACE ( 'NONE', #67, 0.7134999999999995790 ) ;
#293 = DIRECTION ( 'NONE',  ( -4.275831445896957731E-31, -1.000000000000000000, -1.224646799147352961E-16 ) ) ;
#294 = AXIS2_PLACEMENT_3D ( 'NONE', #259, #28, #89 ) ;
#295 = DATE_AND_TIME ( #110, #17 ) ;
#296 = TOROIDAL_SURFACE ( 'NONE', #182, 2.640000000000000124, 2.000000000000000000 ) ;
#297 = DIRECTION ( 'NONE',  ( 0.0000000000000000000, 1.000000000000000000, 0.0000000000000000000 ) ) ;
#298 = SECURITY_CLASSIFICATION_LEVEL ( 'unclassified' ) ;
#299 = APPROVAL_DATE_TIME ( #295, #160 ) ;
#300 = DIRECTION ( 'NONE',  ( 3.491481338843133355E-15, -1.224646799147352961E-16, 1.000000000000000000 ) ) ;
#301 = ADVANCED_FACE ( 'NONE', ( #12 ), #102, .T. ) ;
#302 = CC_DESIGN_APPROVAL ( #125, ( #87 ) ) ;
#303 = CARTESIAN_POINT ( 'NONE',  ( 0.0000000000000000000, 0.0000000000000000000, 0.0000000000000000000 ) ) ;
ENDSEC;
END-ISO-10303-21;
