ISO-10303-21;
HEADER;
FILE_DESCRIPTION (( 'STEP AP203' ),
    '1' );
FILE_NAME ('955746.step',
    '2021-11-29T14:58:42',
    ( '' ),
    ( '' ),
    'SwSTEP 2.0',
    'SolidWorks 2019',
    '' );
FILE_SCHEMA (( 'CONFIG_CONTROL_DESIGN' ));
ENDSEC;

DATA;
#1 = FACE_BOUND ( 'NONE', #249, .T. ) ;
#2 = PERSON_AND_ORGANIZATION ( #126, #25 ) ;
#3 = DIRECTION ( 'NONE',  ( -3.491481338843133355E-15, 1.224646799147352961E-16, -1.000000000000000000 ) ) ;
#4 = DATE_AND_TIME ( #22, #218 ) ;
#5 = EDGE_CURVE ( 'NONE', #197, #197, #164, .T. ) ;
#6 = FACE_OUTER_BOUND ( 'NONE', #293, .T. ) ;
#7 = CALENDAR_DATE ( 2021, 29, 11 ) ;
#8 = CARTESIAN_POINT ( 'NONE',  ( 0.0000000000000000000, 0.0000000000000000000, 0.0000000000000000000 ) ) ;
#9 = VERTEX_POINT ( 'NONE', #199 ) ;
#10 = CC_DESIGN_PERSON_AND_ORGANIZATION_ASSIGNMENT ( #265, #11, ( #143 ) ) ;
#11 = PERSON_AND_ORGANIZATION_ROLE ( 'creator' ) ;
#12 = SECURITY_CLASSIFICATION ( '', '', #144 ) ;
#13 = ORIENTED_EDGE ( 'NONE', *, *, #79, .F. ) ;
#14 = DIRECTION ( 'NONE',  ( 0.0000000000000000000, 1.000000000000000000, 0.0000000000000000000 ) ) ;
#15 = APPROVAL_STATUS ( 'not_yet_approved' ) ;
#16 = DIRECTION ( 'NONE',  ( -3.491481338843133355E-15, 1.224646799147352961E-16, -1.000000000000000000 ) ) ;
#17 = FACE_OUTER_BOUND ( 'NONE', #294, .T. ) ;
#18 = CIRCLE ( 'NONE', #254, 0.5741624327025950381 ) ;
#19 = CARTESIAN_POINT ( 'NONE',  ( 2.444036937190193349E-14, 5.387887019212710237E-33, 7.000000000000000000 ) ) ;
#20 = DIRECTION ( 'NONE',  ( 0.0000000000000000000, 0.0000000000000000000, 1.000000000000000000 ) ) ;
#21 = DIRECTION ( 'NONE',  ( 4.275831445896957731E-31, 1.000000000000000000, 1.224646799147352961E-16 ) ) ;
#22 = CALENDAR_DATE ( 2021, 29, 11 ) ;
#23 = CARTESIAN_POINT ( 'NONE',  ( -1.227510892401225893E-31, 4.305528626413235426E-33, -3.515730926999452612E-17 ) ) ;
#24 = APPROVAL ( #191, 'UNSPECIFIED' ) ;
#25 = ORGANIZATION ( 'UNSPECIFIED', 'UNSPECIFIED', '' ) ;
#26 = DIRECTION ( 'NONE',  ( -3.491481338843133355E-15, 1.224646799147352961E-16, -1.000000000000000000 ) ) ;
#27 = FACE_OUTER_BOUND ( 'NONE', #295, .T. ) ;
#28 = APPROVAL_ROLE ( '' ) ;
#29 = VERTEX_POINT ( 'NONE', #174 ) ;
#30 = APPROVAL_DATE_TIME ( #122, #100 ) ;
#31 = TOROIDAL_SURFACE ( 'NONE', #64, 2.640000000000000124, 2.000000000000000000 ) ;
#32 = EDGE_CURVE ( 'NONE', #29, #29, #18, .T. ) ;
#33 = EDGE_LOOP ( 'NONE', ( #67 ) ) ;
#34 = EDGE_CURVE ( 'NONE', #54, #54, #124, .T. ) ;
#35 = CLOSED_SHELL ( 'NONE', ( #176, #120, #268, #112 ) ) ;
#36 = ORIENTED_EDGE ( 'NONE', *, *, #32, .T. ) ;
#37 = EDGE_LOOP ( 'NONE', ( #215 ) ) ;
#38 = CC_DESIGN_APPROVAL ( #24, ( #92 ) ) ;
#39 = CC_DESIGN_SECURITY_CLASSIFICATION ( #12, ( #143 ) ) ;
#40 = DIRECTION ( 'NONE',  ( 0.0000000000000000000, 1.000000000000000000, 0.0000000000000000000 ) ) ;
#41 = DIRECTION ( 'NONE',  ( -3.491481338843133355E-15, 1.224646799147352961E-16, -1.000000000000000000 ) ) ;
#42 = DIRECTION ( 'NONE',  ( -3.491481338843133355E-15, 1.224646799147352961E-16, -1.000000000000000000 ) ) ;
#43 = CC_DESIGN_PERSON_AND_ORGANIZATION_ASSIGNMENT ( #2, #139, ( #117 ) ) ;
#44 = DIRECTION ( 'NONE',  ( -4.275831445896957731E-31, -1.000000000000000000, -1.224646799147352961E-16 ) ) ;
#45 = CIRCLE ( 'NONE', #50, 0.7185000000000001386 ) ;
#46 = CARTESIAN_POINT ( 'NONE',  ( 8.728703347107829444E-16, -3.061616997868381169E-17, 0.2499999999999998890 ) ) ;
#47 = PERSON_AND_ORGANIZATION_ROLE ( 'creator' ) ;
#48 = DIRECTION ( 'NONE',  ( -3.491481338843133355E-15, 1.224646799147352961E-16, -1.000000000000000000 ) ) ;
#49 = CARTESIAN_POINT ( 'NONE',  ( 1.326762908760390423E-13, 8.998558695971099120E-33, 38.00000000000000000 ) ) ;
#50 = AXIS2_PLACEMENT_3D ( 'NONE', #110, #131, #283 ) ;
#51 = AXIS2_PLACEMENT_3D ( 'NONE', #188, #258, #68 ) ;
#52 = DIRECTION ( 'NONE',  ( 0.0000000000000000000, -1.000000000000000000, 0.0000000000000000000 ) ) ;
#53 = CALENDAR_DATE ( 2021, 29, 11 ) ;
#54 = VERTEX_POINT ( 'NONE', #224 ) ;
#55 = MANIFOLD_SOLID_BREP ( 'Corps-Déplacer/Copier1[1]', #115 ) ;
#56 = ADVANCED_FACE ( 'NONE', ( #190, #237 ), #160, .T. ) ;
#57 = VERTEX_POINT ( 'NONE', #147 ) ;
#58 =( GEOMETRIC_REPRESENTATION_CONTEXT ( 3 ) GLOBAL_UNCERTAINTY_ASSIGNED_CONTEXT ( ( #299 ) ) GLOBAL_UNIT_ASSIGNED_CONTEXT ( ( #189, #281, #259 ) ) REPRESENTATION_CONTEXT ( 'NONE', 'WORKASPACE' ) );
#59 = APPLICATION_CONTEXT ( 'configuration controlled 3d designs of mechanical parts and assemblies' ) ;
#60 = CONICAL_SURFACE ( 'NONE', #148, 0.6399999999999993472, 0.5235987755982965952 ) ;
#61 = EDGE_LOOP ( 'NONE', ( #181 ) ) ;
#62 = FACE_OUTER_BOUND ( 'NONE', #84, .T. ) ;
#63 = DATE_TIME_ROLE ( 'creation_date' ) ;
#64 = AXIS2_PLACEMENT_3D ( 'NONE', #113, #48, #21 ) ;
#65 = DIRECTION ( 'NONE',  ( 4.275831445896957731E-31, 1.000000000000000000, 1.224646799147352961E-16 ) ) ;
#66 = DIRECTION ( 'NONE',  ( 5.360974097111309159E-31, 1.000000000000000000, 1.508980059130835823E-16 ) ) ;
#67 = ORIENTED_EDGE ( 'NONE', *, *, #5, .F. ) ;
#68 = DIRECTION ( 'NONE',  ( -4.275831445896957731E-31, -1.000000000000000000, -1.224646799147352961E-16 ) ) ;
#69 = VERTEX_POINT ( 'NONE', #263 ) ;
#70 = CARTESIAN_POINT ( 'NONE',  ( 0.0000000000000000000, 0.0000000000000000000, 0.0000000000000000000 ) ) ;
#71 = DIRECTION ( 'NONE',  ( -4.275831445896957731E-31, -1.000000000000000000, -1.224646799147352961E-16 ) ) ;
#72 = CARTESIAN_POINT ( 'NONE',  ( 2.491509208309750293E-14, -8.739037906511284228E-16, 7.135965988394159076 ) ) ;
#73 = VERTEX_POINT ( 'NONE', #271 ) ;
#74 = AXIS2_PLACEMENT_3D ( 'NONE', #8, #114, #267 ) ;
#75 = EDGE_CURVE ( 'NONE', #9, #9, #45, .T. ) ;
#76 = ORIENTED_EDGE ( 'NONE', *, *, #79, .T. ) ;
#77 = CONICAL_SURFACE ( 'NONE', #231, 1.200000000000003286, 0.7853981633974453924 ) ;
#78 = ORIENTED_EDGE ( 'NONE', *, *, #75, .F. ) ;
#79 = EDGE_CURVE ( 'NONE', #73, #73, #101, .T. ) ;
#80 = DIRECTION ( 'NONE',  ( -3.491481338843133355E-15, 1.224646799147352961E-16, -1.000000000000000000 ) ) ;
#81 = CARTESIAN_POINT ( 'NONE',  ( 2.444036937190193349E-14, 0.7184999999999992504, 7.000000000000000000 ) ) ;
#82 = CARTESIAN_POINT ( 'NONE',  ( 1.316288464743861212E-13, -4.616918432785520292E-15, 37.69999999999999574 ) ) ;
#83 = EDGE_CURVE ( 'NONE', #57, #57, #223, .T. ) ;
#84 = EDGE_LOOP ( 'NONE', ( #209 ) ) ;
#85 = DIRECTION ( 'NONE',  ( -3.491481338843133355E-15, 1.224646799147352961E-16, -1.000000000000000000 ) ) ;
#86 = DIRECTION ( 'NONE',  ( 3.491481338843133355E-15, -1.224646799147352961E-16, 1.000000000000000000 ) ) ;
#87 = PERSON_AND_ORGANIZATION ( #126, #25 ) ;
#88 = CARTESIAN_POINT ( 'NONE',  ( 5.358479882634335789E-14, 0.6703844939755791987, 15.34729635533384595 ) ) ;
#89 = AXIS2_PLACEMENT_3D ( 'NONE', #19, #186, #44 ) ;
#90 = VERTEX_POINT ( 'NONE', #88 ) ;
#91 = DIRECTION ( 'NONE',  ( 0.0000000000000000000, 1.000000000000000000, 0.0000000000000000000 ) ) ;
#92 = PRODUCT_DEFINITION ( 'UNKNOWN', '', #143, #157 ) ;
#93 = CARTESIAN_POINT ( 'NONE',  ( 7.001216034561317649E-14, -2.455696014032128387E-15, 20.05227969192325332 ) ) ;
#94 = AXIS2_PLACEMENT_3D ( 'NONE', #70, #169, #118 ) ;
#95 = DATE_TIME_ROLE ( 'classification_date' ) ;
#96 = FACE_OUTER_BOUND ( 'NONE', #129, .T. ) ;
#97 = ORIENTED_EDGE ( 'NONE', *, *, #236, .F. ) ;
#98 = EDGE_CURVE ( 'NONE', #90, #90, #279, .T. ) ;
#99 = LOCAL_TIME ( 15, 58, 42.00000000000000000, #104 ) ;
#100 = APPROVAL ( #15, 'UNSPECIFIED' ) ;
#101 = CIRCLE ( 'NONE', #250, 1.500000000000003331 ) ;
#102 = PLANE ( 'NONE',  #89 ) ;
#103 = FACE_OUTER_BOUND ( 'NONE', #273, .T. ) ;
#104 = COORDINATED_UNIVERSAL_TIME_OFFSET ( 1, 0, .AHEAD. ) ;
#105 = DIRECTION ( 'NONE',  ( 4.275831445896957731E-31, 1.000000000000000000, 1.224646799147352961E-16 ) ) ;
#106 = DIRECTION ( 'NONE',  ( 1.000000000000000000, 0.0000000000000000000, 0.0000000000000000000 ) ) ;
#107 = AXIS2_PLACEMENT_3D ( 'NONE', #49, #168, #220 ) ;
#108 = ORIENTED_EDGE ( 'NONE', *, *, #200, .T. ) ;
#109 = CARTESIAN_POINT ( 'NONE',  ( 0.0000000000000000000, 0.0000000000000000000, 0.0000000000000000000 ) ) ;
#110 = CARTESIAN_POINT ( 'NONE',  ( 2.444036937190193349E-14, -8.572527594031471218E-16, 7.000000000000000000 ) ) ;
#111 = APPLICATION_PROTOCOL_DEFINITION ( 'international standard', 'config_control_design', 1994, #59 ) ;
#112 = ADVANCED_FACE ( 'NONE', ( #17 ), #102, .T. ) ;
#113 = CARTESIAN_POINT ( 'NONE',  ( 5.237222008264700033E-14, -1.734723475976807094E-15, 15.00000000000000000 ) ) ;
#114 = DIRECTION ( 'NONE',  ( -3.491481338843133355E-15, 1.224646799147352961E-16, -1.000000000000000000 ) ) ;
#115 = CLOSED_SHELL ( 'NONE', ( #137, #179, #56, #252, #205, #274, #149, #159 ) ) ;
#116 = DATE_AND_TIME ( #53, #301 ) ;
#117 = PRODUCT ( '955746', '955746', '', ( #238 ) ) ;
#118 = DIRECTION ( 'NONE',  ( 4.275831445896957731E-31, 1.000000000000000000, 1.224646799147352961E-16 ) ) ;
#119 = COORDINATED_UNIVERSAL_TIME_OFFSET ( 1, 0, .AHEAD. ) ;
#120 = ADVANCED_FACE ( 'NONE', ( #1, #303 ), #296, .T. ) ;
#121 = DIRECTION ( 'NONE',  ( -3.491481338843133355E-15, 1.224646799147352961E-16, -1.000000000000000000 ) ) ;
#122 = DATE_AND_TIME ( #210, #99 ) ;
#123 = DIRECTION ( 'NONE',  ( 0.0000000000000000000, 1.000000000000000000, 0.0000000000000000000 ) ) ;
#124 = CIRCLE ( 'NONE', #180, 0.7184999999999992504 ) ;
#125 = PERSON_AND_ORGANIZATION_ROLE ( 'classification_officer' ) ;
#126 = PERSON ( 'UNSPECIFIED', 'UNSPECIFIED', 'UNSPECIFIED', ('UNSPECIFIED'), ('UNSPECIFIED'), ('UNSPECIFIED') ) ;
#127 = PRODUCT_RELATED_PRODUCT_CATEGORY ( 'detail', '', ( #117 ) ) ;
#128 = CC_DESIGN_APPROVAL ( #100, ( #143 ) ) ;
#129 = EDGE_LOOP ( 'NONE', ( #207 ) ) ;
#130 = ORIENTED_EDGE ( 'NONE', *, *, #230, .T. ) ;
#131 = DIRECTION ( 'NONE',  ( -3.491481338843133355E-15, 1.224646799147352961E-16, -1.000000000000000000 ) ) ;
#132 = ORIENTED_EDGE ( 'NONE', *, *, #34, .T. ) ;
#133 = ADVANCED_BREP_SHAPE_REPRESENTATION ( '955746', ( #55, #154, #228 ), #58 ) ;
#134 = PLANE ( 'NONE',  #51 ) ;
#135 = AXIS2_PLACEMENT_3D ( 'NONE', #276, #253, #297 ) ;
#136 = ORIENTED_EDGE ( 'NONE', *, *, #5, .T. ) ;
#137 = ADVANCED_FACE ( 'NONE', ( #103 ), #134, .F. ) ;
#138 = CARTESIAN_POINT ( 'NONE',  ( 1.326762908760390423E-13, -4.653657836759941152E-15, 38.00000000000000000 ) ) ;
#139 = PERSON_AND_ORGANIZATION_ROLE ( 'design_owner' ) ;
#140 = DIRECTION ( 'NONE',  ( -3.491481338843133355E-15, 1.224646799147352961E-16, -1.000000000000000000 ) ) ;
#141 = PERSON_AND_ORGANIZATION ( #126, #25 ) ;
#142 = DIRECTION ( 'NONE',  ( 3.491481338843133355E-15, -1.224646799147352961E-16, 1.000000000000000000 ) ) ;
#143 = PRODUCT_DEFINITION_FORMATION_WITH_SPECIFIED_SOURCE ( 'ANY', '', #117, .NOT_KNOWN. ) ;
#144 = SECURITY_CLASSIFICATION_LEVEL ( 'unclassified' ) ;
#145 = FACE_OUTER_BOUND ( 'NONE', #182, .T. ) ;
#146 = CYLINDRICAL_SURFACE ( 'NONE', #74, 1.500000000000000444 ) ;
#147 = CARTESIAN_POINT ( 'NONE',  ( 5.237222008264700033E-14, 0.6399999999999982370, 15.00000000000000000 ) ) ;
#148 = AXIS2_PLACEMENT_3D ( 'NONE', #72, #140, #290 ) ;
#149 = ADVANCED_FACE ( 'NONE', ( #166, #261 ), #77, .T. ) ;
#150 = ORIENTED_EDGE ( 'NONE', *, *, #83, .T. ) ;
#151 = CC_DESIGN_PERSON_AND_ORGANIZATION_ASSIGNMENT ( #141, #125, ( #12 ) ) ;
#152 = AXIS2_PLACEMENT_3D ( 'NONE', #270, #121, #91 ) ;
#153 = APPLICATION_CONTEXT ( 'configuration controlled 3d designs of mechanical parts and assemblies' ) ;
#154 = MANIFOLD_SOLID_BREP ( 'Corps-Déplacer/Copier1[2]', #35 ) ;
#155 = EDGE_LOOP ( 'NONE', ( #78 ) ) ;
#156 = PLANE ( 'NONE',  #107 ) ;
#157 = DESIGN_CONTEXT ( 'detailed design', #153, 'design' ) ;
#158 = CALENDAR_DATE ( 2021, 29, 11 ) ;
#159 = ADVANCED_FACE ( 'NONE', ( #62 ), #156, .F. ) ;
#160 = CYLINDRICAL_SURFACE ( 'NONE', #196, 0.6399999999999996803 ) ;
#161 = APPLICATION_PROTOCOL_DEFINITION ( 'international standard', 'config_control_design', 1994, #153 ) ;
#162 = EDGE_LOOP ( 'NONE', ( #13 ) ) ;
#163 = DIRECTION ( 'NONE',  ( -3.491481338843133355E-15, 1.224646799147352961E-16, -1.000000000000000000 ) ) ;
#164 = CIRCLE ( 'NONE', #213, 0.6399999999999993472 ) ;
#165 = LOCAL_TIME ( 15, 58, 42.00000000000000000, #173 ) ;
#166 = FACE_OUTER_BOUND ( 'NONE', #162, .T. ) ;
#167 = COORDINATED_UNIVERSAL_TIME_OFFSET ( 1, 0, .AHEAD. ) ;
#168 = DIRECTION ( 'NONE',  ( -3.491481338843133355E-15, 1.224646799147352961E-16, -1.000000000000000000 ) ) ;
#169 = DIRECTION ( 'NONE',  ( -3.491481338843133355E-15, 1.224646799147352961E-16, -1.000000000000000000 ) ) ;
#170 = PERSON_AND_ORGANIZATION_ROLE ( 'design_supplier' ) ;
#171 = CIRCLE ( 'NONE', #260, 1.499999999999997780 ) ;
#172 = PLANE ( 'NONE',  #192 ) ;
#173 = COORDINATED_UNIVERSAL_TIME_OFFSET ( 1, 0, .AHEAD. ) ;
#174 = CARTESIAN_POINT ( 'NONE',  ( 0.0000000000000000000, 0.5741624327025950381, 0.0000000000000000000 ) ) ;
#175 = FACE_OUTER_BOUND ( 'NONE', #155, .T. ) ;
#176 = ADVANCED_FACE ( 'NONE', ( #27 ), #172, .F. ) ;
#177 = LOCAL_TIME ( 15, 58, 42.00000000000000000, #167 ) ;
#178 = EDGE_LOOP ( 'NONE', ( #76 ) ) ;
#179 = ADVANCED_FACE ( 'NONE', ( #175, #248 ), #60, .T. ) ;
#180 = AXIS2_PLACEMENT_3D ( 'NONE', #46, #16, #66 ) ;
#181 = ORIENTED_EDGE ( 'NONE', *, *, #83, .F. ) ;
#182 = EDGE_LOOP ( 'NONE', ( #251 ) ) ;
#183 = EDGE_LOOP ( 'NONE', ( #150 ) ) ;
#184 = AXIS2_PLACEMENT_3D ( 'NONE', #211, #240, #14 ) ;
#185 = CIRCLE ( 'NONE', #272, 0.7185000000000001386 ) ;
#186 = DIRECTION ( 'NONE',  ( 3.491481338843133355E-15, -1.224646799147352961E-16, 1.000000000000000000 ) ) ;
#187 = APPROVAL ( #287, 'UNSPECIFIED' ) ;
#188 = CARTESIAN_POINT ( 'NONE',  ( 2.444036937190193349E-14, 5.387887019212710237E-33, 7.000000000000000000 ) ) ;
#189 =( LENGTH_UNIT ( ) NAMED_UNIT ( * ) SI_UNIT ( .MILLI., .METRE. ) );
#190 = FACE_OUTER_BOUND ( 'NONE', #33, .T. ) ;
#191 = APPROVAL_STATUS ( 'not_yet_approved' ) ;
#192 = AXIS2_PLACEMENT_3D ( 'NONE', #23, #142, #71 ) ;
#193 = VERTEX_POINT ( 'NONE', #284 ) ;
#194 = VERTEX_POINT ( 'NONE', #81 ) ;
#195 = FACE_OUTER_BOUND ( 'NONE', #178, .T. ) ;
#196 = AXIS2_PLACEMENT_3D ( 'NONE', #256, #41, #105 ) ;
#197 = VERTEX_POINT ( 'NONE', #289 ) ;
#198 = PERSON_AND_ORGANIZATION ( #126, #25 ) ;
#199 = CARTESIAN_POINT ( 'NONE',  ( 2.444036937190193349E-14, 0.7184999999999992504, 7.000000000000000000 ) ) ;
#200 = EDGE_CURVE ( 'NONE', #193, #193, #171, .T. ) ;
#201 = APPROVAL_DATE_TIME ( #227, #187 ) ;
#202 = APPROVAL_PERSON_ORGANIZATION ( #87, #24, #235 ) ;
#203 = EDGE_LOOP ( 'NONE', ( #108 ) ) ;
#204 = APPROVAL_PERSON_ORGANIZATION ( #198, #187, #28 ) ;
#205 = ADVANCED_FACE ( 'NONE', ( #286, #264 ), #239, .T. ) ;
#206 = EDGE_LOOP ( 'NONE', ( #132 ) ) ;
#207 = ORIENTED_EDGE ( 'NONE', *, *, #34, .F. ) ;
#208 = DIRECTION ( 'NONE',  ( -5.360974097111309159E-31, -1.000000000000000000, -1.508980059130835823E-16 ) ) ;
#209 = ORIENTED_EDGE ( 'NONE', *, *, #230, .F. ) ;
#210 = CALENDAR_DATE ( 2021, 29, 11 ) ;
#211 = CARTESIAN_POINT ( 'NONE',  ( 5.358479882634335789E-14, -1.879501735712542907E-15, 15.34729635533384595 ) ) ;
#212 = APPROVAL_DATE_TIME ( #262, #24 ) ;
#213 = AXIS2_PLACEMENT_3D ( 'NONE', #298, #85, #300 ) ;
#214 = ORIENTED_EDGE ( 'NONE', *, *, #75, .T. ) ;
#215 = ORIENTED_EDGE ( 'NONE', *, *, #200, .F. ) ;
#216 = CARTESIAN_POINT ( 'NONE',  ( 2.444036937190193349E-14, -8.572527594031471218E-16, 7.000000000000000000 ) ) ;
#217 = PERSON_AND_ORGANIZATION ( #126, #25 ) ;
#218 = LOCAL_TIME ( 15, 58, 42.00000000000000000, #242 ) ;
#219 = DIRECTION ( 'NONE',  ( 0.0000000000000000000, 1.000000000000000000, 0.0000000000000000000 ) ) ;
#220 = DIRECTION ( 'NONE',  ( 4.275831445896957731E-31, 1.000000000000000000, 1.224646799147352961E-16 ) ) ;
#221 = PRODUCT_DEFINITION_SHAPE ( 'NONE', 'NONE',  #92 ) ;
#222 = FACE_OUTER_BOUND ( 'NONE', #37, .T. ) ;
#223 = CIRCLE ( 'NONE', #135, 0.6400000000000000133 ) ;
#224 = CARTESIAN_POINT ( 'NONE',  ( 8.728703347107833388E-16, 0.7184999999999992504, 0.2500000000000000000 ) ) ;
#225 = CC_DESIGN_APPROVAL ( #187, ( #12 ) ) ;
#226 = SHAPE_DEFINITION_REPRESENTATION ( #221, #133 ) ;
#227 = DATE_AND_TIME ( #7, #165 ) ;
#228 = AXIS2_PLACEMENT_3D ( 'NONE', #109, #20, #106 ) ;
#229 = EDGE_LOOP ( 'NONE', ( #234 ) ) ;
#230 = EDGE_CURVE ( 'NONE', #69, #69, #266, .T. ) ;
#231 = AXIS2_PLACEMENT_3D ( 'NONE', #138, #80, #40 ) ;
#232 = DIRECTION ( 'NONE',  ( 0.0000000000000000000, 1.000000000000000000, 0.0000000000000000000 ) ) ;
#233 = PERSON_AND_ORGANIZATION ( #126, #25 ) ;
#234 = ORIENTED_EDGE ( 'NONE', *, *, #98, .F. ) ;
#235 = APPROVAL_ROLE ( '' ) ;
#236 = EDGE_CURVE ( 'NONE', #194, #194, #185, .T. ) ;
#237 = FACE_OUTER_BOUND ( 'NONE', #183, .T. ) ;
#238 = MECHANICAL_CONTEXT ( 'NONE', #59, 'mechanical' ) ;
#239 = CONICAL_SURFACE ( 'NONE', #288, 1.499999999999997780, 0.1745329251994261754 ) ;
#240 = DIRECTION ( 'NONE',  ( -3.491481338843133355E-15, 1.224646799147352961E-16, -1.000000000000000000 ) ) ;
#241 = ORIENTED_EDGE ( 'NONE', *, *, #98, .T. ) ;
#242 = COORDINATED_UNIVERSAL_TIME_OFFSET ( 1, 0, .AHEAD. ) ;
#243 = CC_DESIGN_PERSON_AND_ORGANIZATION_ASSIGNMENT ( #269, #170, ( #143 ) ) ;
#244 = DIRECTION ( 'NONE',  ( 3.491481338843133355E-15, -1.224646799147352961E-16, 1.000000000000000000 ) ) ;
#245 = APPROVAL_PERSON_ORGANIZATION ( #233, #100, #302 ) ;
#246 = FACE_OUTER_BOUND ( 'NONE', #61, .T. ) ;
#247 = CARTESIAN_POINT ( 'NONE',  ( 7.001216034561317649E-14, -2.455696014032128387E-15, 20.05227969192325332 ) ) ;
#248 = FACE_BOUND ( 'NONE', #282, .T. ) ;
#249 = EDGE_LOOP ( 'NONE', ( #275 ) ) ;
#250 = AXIS2_PLACEMENT_3D ( 'NONE', #82, #163, #232 ) ;
#251 = ORIENTED_EDGE ( 'NONE', *, *, #236, .T. ) ;
#252 = ADVANCED_FACE ( 'NONE', ( #246, #6 ), #31, .F. ) ;
#253 = DIRECTION ( 'NONE',  ( -3.491481338843133355E-15, 1.224646799147352961E-16, -1.000000000000000000 ) ) ;
#254 = AXIS2_PLACEMENT_3D ( 'NONE', #278, #42, #65 ) ;
#255 = CC_DESIGN_DATE_AND_TIME_ASSIGNMENT ( #4, #63, ( #92 ) ) ;
#256 = CARTESIAN_POINT ( 'NONE',  ( 0.0000000000000000000, 0.0000000000000000000, 0.0000000000000000000 ) ) ;
#257 = EDGE_LOOP ( 'NONE', ( #130 ) ) ;
#258 = DIRECTION ( 'NONE',  ( 3.491481338843133355E-15, -1.224646799147352961E-16, 1.000000000000000000 ) ) ;
#259 =( NAMED_UNIT ( * ) SI_UNIT ( $, .STERADIAN. ) SOLID_ANGLE_UNIT ( ) );
#260 = AXIS2_PLACEMENT_3D ( 'NONE', #247, #26, #123 ) ;
#261 = FACE_BOUND ( 'NONE', #257, .T. ) ;
#262 = DATE_AND_TIME ( #158, #177 ) ;
#263 = CARTESIAN_POINT ( 'NONE',  ( 1.326762908760390423E-13, 1.199999999999998845, 38.00000000000000000 ) ) ;
#264 = FACE_OUTER_BOUND ( 'NONE', #203, .T. ) ;
#265 = PERSON_AND_ORGANIZATION ( #126, #25 ) ;
#266 = CIRCLE ( 'NONE', #152, 1.200000000000003286 ) ;
#267 = DIRECTION ( 'NONE',  ( 4.275831445896957731E-31, 1.000000000000000000, 1.224646799147353207E-16 ) ) ;
#268 = ADVANCED_FACE ( 'NONE', ( #96, #145 ), #285, .T. ) ;
#269 = PERSON_AND_ORGANIZATION ( #126, #25 ) ;
#270 = CARTESIAN_POINT ( 'NONE',  ( 1.326762908760390423E-13, -4.653657836759941152E-15, 38.00000000000000000 ) ) ;
#271 = CARTESIAN_POINT ( 'NONE',  ( 1.316288464743861212E-13, 1.499999999999998668, 37.69999999999999574 ) ) ;
#272 = AXIS2_PLACEMENT_3D ( 'NONE', #216, #3, #219 ) ;
#273 = EDGE_LOOP ( 'NONE', ( #214 ) ) ;
#274 = ADVANCED_FACE ( 'NONE', ( #222, #195 ), #146, .T. ) ;
#275 = ORIENTED_EDGE ( 'NONE', *, *, #32, .F. ) ;
#276 = CARTESIAN_POINT ( 'NONE',  ( 5.237222008264700033E-14, -1.836970198721029194E-15, 15.00000000000000000 ) ) ;
#277 = CC_DESIGN_DATE_AND_TIME_ASSIGNMENT ( #116, #95, ( #12 ) ) ;
#278 = CARTESIAN_POINT ( 'NONE',  ( -2.455021784802451786E-31, 8.611057252826470851E-33, -7.031461853998905224E-17 ) ) ;
#279 = CIRCLE ( 'NONE', #184, 0.6703844939755810861 ) ;
#280 = CARTESIAN_POINT ( 'NONE',  ( 8.728703347107829444E-16, -3.061616997868381169E-17, 0.2499999999999998890 ) ) ;
#281 =( NAMED_UNIT ( * ) PLANE_ANGLE_UNIT ( ) SI_UNIT ( $, .RADIAN. ) );
#282 = EDGE_LOOP ( 'NONE', ( #136 ) ) ;
#283 = DIRECTION ( 'NONE',  ( 0.0000000000000000000, 1.000000000000000000, 0.0000000000000000000 ) ) ;
#284 = CARTESIAN_POINT ( 'NONE',  ( 7.001216034561317649E-14, 1.499999999999995559, 20.05227969192325332 ) ) ;
#285 = CYLINDRICAL_SURFACE ( 'NONE', #94, 0.7184999999999996945 ) ;
#286 = FACE_BOUND ( 'NONE', #229, .T. ) ;
#287 = APPROVAL_STATUS ( 'not_yet_approved' ) ;
#288 = AXIS2_PLACEMENT_3D ( 'NONE', #93, #244, #52 ) ;
#289 = CARTESIAN_POINT ( 'NONE',  ( 2.491509208309750293E-14, 0.6399999999999984590, 7.135965988394159076 ) ) ;
#290 = DIRECTION ( 'NONE',  ( 0.0000000000000000000, 1.000000000000000000, 0.0000000000000000000 ) ) ;
#291 = CC_DESIGN_PERSON_AND_ORGANIZATION_ASSIGNMENT ( #217, #47, ( #92 ) ) ;
#292 = AXIS2_PLACEMENT_3D ( 'NONE', #280, #86, #208 ) ;
#293 = EDGE_LOOP ( 'NONE', ( #241 ) ) ;
#294 = EDGE_LOOP ( 'NONE', ( #97 ) ) ;
#295 = EDGE_LOOP ( 'NONE', ( #36 ) ) ;
#296 = CONICAL_SURFACE ( 'NONE', #292, 0.7184999999999992504, 0.5235987755982924874 ) ;
#297 = DIRECTION ( 'NONE',  ( 0.0000000000000000000, 1.000000000000000000, 0.0000000000000000000 ) ) ;
#298 = CARTESIAN_POINT ( 'NONE',  ( 2.491509208309750293E-14, -8.739037906511284228E-16, 7.135965988394159076 ) ) ;
#299 = UNCERTAINTY_MEASURE_WITH_UNIT (LENGTH_MEASURE( 1.000000000000000082E-05 ), #189, 'distance_accuracy_value', 'NONE');
#300 = DIRECTION ( 'NONE',  ( 0.0000000000000000000, 1.000000000000000000, 0.0000000000000000000 ) ) ;
#301 = LOCAL_TIME ( 15, 58, 42.00000000000000000, #119 ) ;
#302 = APPROVAL_ROLE ( '' ) ;
#303 = FACE_OUTER_BOUND ( 'NONE', #206, .T. ) ;
ENDSEC;
END-ISO-10303-21;
