ISO-10303-21;
HEADER;
FILE_DESCRIPTION (( 'STEP AP203' ),
    '1' );
FILE_NAME ('955699.step',
    '2023-09-27T05:49:09',
    ( '' ),
    ( '' ),
    'SwSTEP 2.0',
    'SolidWorks 2022',
    '' );
FILE_SCHEMA (( 'CONFIG_CONTROL_DESIGN' ));
ENDSEC;

DATA;
#1 = DIRECTION ( 'NONE',  ( 3.491481338843133355E-15, -0.000000000000000000, 1.000000000000000000 ) ) ;
#2 = CC_DESIGN_PERSON_AND_ORGANIZATION_ASSIGNMENT ( #31, #4, ( #323 ) ) ;
#3 = EDGE_LOOP ( 'NONE', ( #211 ) ) ;
#4 = PERSON_AND_ORGANIZATION_ROLE ( 'design_owner' ) ;
#5 = EDGE_LOOP ( 'NONE', ( #8 ) ) ;
#6 = AXIS2_PLACEMENT_3D ( 'NONE', #380, #167, #99 ) ;
#7 = AXIS2_PLACEMENT_3D ( 'NONE', #202, #229, #205 ) ;
#8 = ORIENTED_EDGE ( 'NONE', *, *, #259, .F. ) ;
#9 = EDGE_LOOP ( 'NONE', ( #35 ) ) ;
#10 = DIRECTION ( 'NONE',  ( -3.491481338843133355E-15, 0.000000000000000000, -1.000000000000000000 ) ) ;
#11 = PRODUCT_DEFINITION_FORMATION_WITH_SPECIFIED_SOURCE ( 'ANY', '', #323, .NOT_KNOWN. ) ;
#12 = CARTESIAN_POINT ( 'NONE',  ( 1.585000000000003517, 0.000000000000000000, 1.020833333333326376 ) ) ;
#13 = PERSON_AND_ORGANIZATION ( #118, #260 ) ;
#14 = FACE_OUTER_BOUND ( 'NONE', #265, .T. ) ;
#15 = CALENDAR_DATE ( 2023, 27, 9 ) ;
#16 = DIRECTION ( 'NONE',  ( 1.000000000000000000, 0.000000000000000000, -3.491481338843133355E-15 ) ) ;
#17 = APPROVAL_STATUS ( 'not_yet_approved' ) ;
#18 = LOCAL_TIME ( 7, 49, 9.000000000000000000, #293 ) ;
#19 = COORDINATED_UNIVERSAL_TIME_OFFSET ( 1, 0, .AHEAD. ) ;
#20 = DIRECTION ( 'NONE',  ( 1.000000000000000000, 0.000000000000000000, -5.876161773603441765E-15 ) ) ;
#21 = DIRECTION ( 'NONE',  ( 3.491481338843133355E-15, -0.000000000000000000, 1.000000000000000000 ) ) ;
#22 = ORIENTED_EDGE ( 'NONE', *, *, #28, .F. ) ;
#23 = AXIS2_PLACEMENT_3D ( 'NONE', #69, #192, #283 ) ;
#24 = ORIENTED_EDGE ( 'NONE', *, *, #287, .F. ) ;
#25 = ADVANCED_FACE ( 'NONE', ( #338, #369 ), #245, .T. ) ;
#26 = AXIS2_PLACEMENT_3D ( 'NONE', #185, #1, #314 ) ;
#27 = DIRECTION ( 'NONE',  ( -3.491481338843133355E-15, 0.000000000000000000, -1.000000000000000000 ) ) ;
#28 = EDGE_CURVE ( 'NONE', #54, #54, #291, .T. ) ;
#29 = CONICAL_SURFACE ( 'NONE', #251, 1.069074173710928832, 0.2617993877991428575 ) ;
#30 = DIRECTION ( 'NONE',  ( 1.000000000000000000, 0.000000000000000000, -3.488600050268815712E-15 ) ) ;
#31 = PERSON_AND_ORGANIZATION ( #118, #260 ) ;
#32 = CARTESIAN_POINT ( 'NONE',  ( 3.767890278168211853E-15, 0.000000000000000000, 1.079166666666665719 ) ) ;
#33 = PERSON_AND_ORGANIZATION ( #118, #260 ) ;
#34 = DIRECTION ( 'NONE',  ( 3.491481338843133355E-15, -0.000000000000000000, 1.000000000000000000 ) ) ;
#35 = ORIENTED_EDGE ( 'NONE', *, *, #305, .T. ) ;
#36 = CYLINDRICAL_SURFACE ( 'NONE', #395, 1.180854811567259910 ) ;
#37 = DIRECTION ( 'NONE',  ( 1.000000000000000000, 0.000000000000000000, 0.000000000000000000 ) ) ;
#38 = DIRECTION ( 'NONE',  ( 1.000000000000000000, 0.000000000000000000, -3.488971053077043647E-15 ) ) ;
#39 = ADVANCED_FACE ( 'NONE', ( #183, #339 ), #161, .T. ) ;
#40 = AXIS2_PLACEMENT_3D ( 'NONE', #76, #252, #41 ) ;
#41 = DIRECTION ( 'NONE',  ( 1.000000000000000000, 0.000000000000000000, -4.336808689942025625E-15 ) ) ;
#42 = ADVANCED_FACE ( 'NONE', ( #342 ), #243, .F. ) ;
#43 = SHAPE_DEFINITION_REPRESENTATION ( #256, #381 ) ;
#44 = DESIGN_CONTEXT ( 'detailed design', #160, 'design' ) ;
#45 = CARTESIAN_POINT ( 'NONE',  ( 2.749541554338979745E-15, 0.000000000000000000, 0.7875000000000034195 ) ) ;
#46 = PERSON_AND_ORGANIZATION ( #118, #260 ) ;
#47 = DIRECTION ( 'NONE',  ( 3.491481338843133355E-15, -0.000000000000000000, 1.000000000000000000 ) ) ;
#48 = COORDINATED_UNIVERSAL_TIME_OFFSET ( 1, 0, .AHEAD. ) ;
#49 = CIRCLE ( 'NONE', #166, 1.584999999999999964 ) ;
#50 = CARTESIAN_POINT ( 'NONE',  ( 1.585000000000001297, 0.000000000000000000, 0.3791666666666609897 ) ) ;
#51 = PERSON_AND_ORGANIZATION ( #118, #260 ) ;
#52 = FACE_OUTER_BOUND ( 'NONE', #187, .T. ) ;
#53 = AXIS2_PLACEMENT_3D ( 'NONE', #152, #351, #38 ) ;
#54 = VERTEX_POINT ( 'NONE', #304 ) ;
#55 = CONICAL_SURFACE ( 'NONE', #59, 1.029300365904982639, 1.047197551196600518 ) ;
#56 = EDGE_LOOP ( 'NONE', ( #311 ) ) ;
#57 = CARTESIAN_POINT ( 'NONE',  ( 1.069074173710962139, 0.000000000000000000, 9.558819045102511680 ) ) ;
#58 = EDGE_LOOP ( 'NONE', ( #374 ) ) ;
#59 = AXIS2_PLACEMENT_3D ( 'NONE', #107, #179, #334 ) ;
#60 = CARTESIAN_POINT ( 'NONE',  ( -6.660839272714022179E-33, 0.000000000000000000, -1.907740189990825798E-18 ) ) ;
#61 = DIRECTION ( 'NONE',  ( 1.000000000000000000, 0.000000000000000000, -3.561630325073155207E-15 ) ) ;
#62 = DIRECTION ( 'NONE',  ( 1.000000000000000000, 0.000000000000000000, -3.491481338843133355E-15 ) ) ;
#63 = VERTEX_POINT ( 'NONE', #153 ) ;
#64 = PRODUCT_RELATED_PRODUCT_CATEGORY ( 'detail', '', ( #323 ) ) ;
#65 = ORIENTED_EDGE ( 'NONE', *, *, #277, .T. ) ;
#66 = AXIS2_PLACEMENT_3D ( 'NONE', #96, #220, #288 ) ;
#67 = VERTEX_POINT ( 'NONE', #215 ) ;
#68 = FACE_OUTER_BOUND ( 'NONE', #58, .T. ) ;
#69 = CARTESIAN_POINT ( 'NONE',  ( 3.247077645124114651E-14, 0.000000000000000000, 9.300000000000002487 ) ) ;
#70 = FACE_BOUND ( 'NONE', #154, .T. ) ;
#71 = AXIS2_PLACEMENT_3D ( 'NONE', #279, #89, #218 ) ;
#72 = APPROVAL_STATUS ( 'not_yet_approved' ) ;
#73 = EDGE_CURVE ( 'NONE', #296, #296, #232, .T. ) ;
#74 = DIRECTION ( 'NONE',  ( -3.491481338843133355E-15, 0.000000000000000000, -1.000000000000000000 ) ) ;
#75 = CALENDAR_DATE ( 2023, 27, 9 ) ;
#76 = CARTESIAN_POINT ( 'NONE',  ( 1.466422162314116009E-13, 0.000000000000000000, 42.00000000000000000 ) ) ;
#77 = FACE_OUTER_BOUND ( 'NONE', #116, .T. ) ;
#78 = EDGE_LOOP ( 'NONE', ( #85 ) ) ;
#79 = AXIS2_PLACEMENT_3D ( 'NONE', #60, #34, #62 ) ;
#80 = AXIS2_PLACEMENT_3D ( 'NONE', #197, #10, #378 ) ;
#81 = EDGE_LOOP ( 'NONE', ( #335 ) ) ;
#82 = DIRECTION ( 'NONE',  ( 1.000000000000000000, 0.000000000000000000, -4.377851043474592034E-15 ) ) ;
#83 = APPROVAL ( #155, 'UNSPECIFIED' ) ;
#84 = DIRECTION ( 'NONE',  ( 3.491481338843133355E-15, -0.000000000000000000, 1.000000000000000000 ) ) ;
#85 = ORIENTED_EDGE ( 'NONE', *, *, #217, .T. ) ;
#86 = FACE_BOUND ( 'NONE', #3, .T. ) ;
#87 = CIRCLE ( 'NONE', #268, 1.584999999999999964 ) ;
#88 = EDGE_LOOP ( 'NONE', ( #22 ) ) ;
#89 = DIRECTION ( 'NONE',  ( 3.491481338843133355E-15, -0.000000000000000000, 1.000000000000000000 ) ) ;
#90 = LOCAL_TIME ( 7, 49, 9.000000000000000000, #227 ) ;
#91 = DIRECTION ( 'NONE',  ( -1.000000000000000000, 0.000000000000000000, 3.557003972823106077E-15 ) ) ;
#92 = EDGE_LOOP ( 'NONE', ( #180 ) ) ;
#93 = CC_DESIGN_DATE_AND_TIME_ASSIGNMENT ( #385, #169, ( #186 ) ) ;
#94 = ORIENTED_EDGE ( 'NONE', *, *, #156, .T. ) ;
#95 =( NAMED_UNIT ( * ) SI_UNIT ( $, .STERADIAN. ) SOLID_ANGLE_UNIT ( ) );
#96 = CARTESIAN_POINT ( 'NONE',  ( 2.749541554338979745E-15, 0.000000000000000000, 0.7875000000000034195 ) ) ;
#97 = EDGE_CURVE ( 'NONE', #359, #359, #281, .T. ) ;
#98 =( LENGTH_UNIT ( ) NAMED_UNIT ( * ) SI_UNIT ( .MILLI., .METRE. ) );
#99 = DIRECTION ( 'NONE',  ( -1.000000000000000000, 0.000000000000000000, 3.488600050268815712E-15 ) ) ;
#100 = FACE_OUTER_BOUND ( 'NONE', #81, .T. ) ;
#101 = EDGE_CURVE ( 'NONE', #263, #263, #103, .T. ) ;
#102 = DIRECTION ( 'NONE',  ( 1.000000000000000000, 0.000000000000000000, -3.469446951953617344E-15 ) ) ;
#103 = CIRCLE ( 'NONE', #53, 1.180854811567259910 ) ;
#104 = APPROVAL_DATE_TIME ( #322, #363 ) ;
#105 = LOCAL_TIME ( 7, 49, 9.000000000000000000, #19 ) ;
#106 = CARTESIAN_POINT ( 'NONE',  ( 3.247077645124114651E-14, 0.000000000000000000, 9.300000000000000711 ) ) ;
#107 = CARTESIAN_POINT ( 'NONE',  ( 0.000000000000000000, 0.000000000000000000, 0.000000000000000000 ) ) ;
#108 = DATE_AND_TIME ( #383, #390 ) ;
#109 = VERTEX_POINT ( 'NONE', #375 ) ;
#110 = AXIS2_PLACEMENT_3D ( 'NONE', #317, #285, #253 ) ;
#111 = CC_DESIGN_APPROVAL ( #136, ( #186 ) ) ;
#112 = ADVANCED_FACE ( 'NONE', ( #386, #228 ), #170, .T. ) ;
#113 = FACE_BOUND ( 'NONE', #88, .T. ) ;
#114 = APPLICATION_CONTEXT ( 'configuration controlled 3d designs of mechanical parts and assemblies' ) ;
#115 = AXIS2_PLACEMENT_3D ( 'NONE', #45, #224, #348 ) ;
#116 = EDGE_LOOP ( 'NONE', ( #203 ) ) ;
#117 = APPLICATION_PROTOCOL_DEFINITION ( 'international standard', 'config_control_design', 1994, #114 ) ;
#118 = PERSON ( 'UNSPECIFIED', 'UNSPECIFIED', 'UNSPECIFIED', ('UNSPECIFIED'), ('UNSPECIFIED'), ('UNSPECIFIED') ) ;
#119 = ORIENTED_EDGE ( 'NONE', *, *, #101, .F. ) ;
#120 = CARTESIAN_POINT ( 'NONE',  ( 1.180854811567264795, 0.000000000000000000, 1.399999999999994360 ) ) ;
#121 = CIRCLE ( 'NONE', #226, 1.584999999999999964 ) ;
#122 = EDGE_LOOP ( 'NONE', ( #370 ) ) ;
#123 = CARTESIAN_POINT ( 'NONE',  ( 1.585000000000001075, 0.000000000000000000, 0.3208333333333271420 ) ) ;
#124 = FACE_BOUND ( 'NONE', #78, .T. ) ;
#125 = VERTEX_POINT ( 'NONE', #12 ) ;
#126 = DIRECTION ( 'NONE',  ( 1.000000000000000000, 0.000000000000000000, -5.876161773603441765E-15 ) ) ;
#127 = AXIS2_PLACEMENT_3D ( 'NONE', #106, #47, #16 ) ;
#128 = PERSON_AND_ORGANIZATION_ROLE ( 'creator' ) ;
#129 = CC_DESIGN_DATE_AND_TIME_ASSIGNMENT ( #356, #352, ( #196 ) ) ;
#130 = DIRECTION ( 'NONE',  ( 1.000000000000000000, 0.000000000000000000, -3.491481338843133355E-15 ) ) ;
#131 = CARTESIAN_POINT ( 'NONE',  ( 1.029300365904982639, 0.000000000000000000, -3.593783019621656040E-15 ) ) ;
#132 = FACE_OUTER_BOUND ( 'NONE', #271, .T. ) ;
#133 = PERSON_AND_ORGANIZATION_ROLE ( 'design_supplier' ) ;
#134 = CARTESIAN_POINT ( 'NONE',  ( 1.452456236958743728E-13, 0.000000000000000000, 41.60000000000000853 ) ) ;
#135 = AXIS2_PLACEMENT_3D ( 'NONE', #331, #84, #20 ) ;
#136 = APPROVAL ( #17, 'UNSPECIFIED' ) ;
#137 = CARTESIAN_POINT ( 'NONE',  ( 4.888073874380381175E-15, 0.000000000000000000, 1.399999999999998579 ) ) ;
#138 = DIRECTION ( 'NONE',  ( 3.491481338843133355E-15, -0.000000000000000000, 1.000000000000000000 ) ) ;
#139 = EDGE_LOOP ( 'NONE', ( #329 ) ) ;
#140 = EDGE_LOOP ( 'NONE', ( #244 ) ) ;
#141 = CLOSED_SHELL ( 'NONE', ( #42, #355, #112, #148, #237, #223, #303, #25, #343, #368, #39, #191, #309, #145, #175, #209 ) ) ;
#142 = CONICAL_SURFACE ( 'NONE', #66, 1.180854811567259910, 1.047197551196609178 ) ;
#143 = DIRECTION ( 'NONE',  ( 1.000000000000000000, 0.000000000000000000, -3.469446951953614189E-15 ) ) ;
#144 = ORIENTED_EDGE ( 'NONE', *, *, #28, .T. ) ;
#145 = ADVANCED_FACE ( 'NONE', ( #132, #14 ), #255, .T. ) ;
#146 = EDGE_CURVE ( 'NONE', #109, #109, #213, .T. ) ;
#147 = DIRECTION ( 'NONE',  ( 1.000000000000000000, 0.000000000000000000, -3.488600050268815712E-15 ) ) ;
#148 = ADVANCED_FACE ( 'NONE', ( #70, #382 ), #353, .T. ) ;
#149 = AXIS2_PLACEMENT_3D ( 'NONE', #373, #162, #37 ) ;
#150 = EDGE_CURVE ( 'NONE', #125, #125, #121, .T. ) ;
#151 = ORIENTED_EDGE ( 'NONE', *, *, #231, .F. ) ;
#152 = CARTESIAN_POINT ( 'NONE',  ( 2.138532320041425885E-15, 0.000000000000000000, 0.6125000000000019318 ) ) ;
#153 = CARTESIAN_POINT ( 'NONE',  ( 1.180854811567264351, 0.000000000000000000, 1.312499999999997113 ) ) ;
#154 = EDGE_LOOP ( 'NONE', ( #119 ) ) ;
#155 = APPROVAL_STATUS ( 'not_yet_approved' ) ;
#156 = EDGE_CURVE ( 'NONE', #321, #321, #275, .T. ) ;
#157 = CIRCLE ( 'NONE', #23, 1.034999999999999032 ) ;
#158 = EDGE_LOOP ( 'NONE', ( #307 ) ) ;
#159 = VERTEX_POINT ( 'NONE', #123 ) ;
#160 = APPLICATION_CONTEXT ( 'configuration controlled 3d designs of mechanical parts and assemblies' ) ;
#161 = CYLINDRICAL_SURFACE ( 'NONE', #26, 1.034999999999999476 ) ;
#162 = DIRECTION ( 'NONE',  ( 0.000000000000000000, 0.000000000000000000, 1.000000000000000000 ) ) ;
#163 = CARTESIAN_POINT ( 'NONE',  ( 1.466422162314116009E-13, 0.000000000000000000, 42.00000000000000000 ) ) ;
#164 = CARTESIAN_POINT ( 'NONE',  ( 1.466422162314116009E-13, 1.599999999999997202, 42.00000000000000000 ) ) ;
#165 = AXIS2_PLACEMENT_3D ( 'NONE', #242, #310, #30 ) ;
#166 = AXIS2_PLACEMENT_3D ( 'NONE', #178, #394, #147 ) ;
#167 = DIRECTION ( 'NONE',  ( -3.491481338843133355E-15, 0.000000000000000000, -1.000000000000000000 ) ) ;
#168 = FACE_OUTER_BOUND ( 'NONE', #301, .T. ) ;
#169 = DATE_TIME_ROLE ( 'classification_date' ) ;
#170 = CYLINDRICAL_SURFACE ( 'NONE', #110, 1.584999999999999964 ) ;
#171 = APPROVAL_DATE_TIME ( #286, #83 ) ;
#172 = AXIS2_PLACEMENT_3D ( 'NONE', #236, #235, #366 ) ;
#173 = FACE_OUTER_BOUND ( 'NONE', #92, .T. ) ;
#174 = FACE_OUTER_BOUND ( 'NONE', #176, .T. ) ;
#175 = ADVANCED_FACE ( 'NONE', ( #221, #225 ), #372, .T. ) ;
#176 = EDGE_LOOP ( 'NONE', ( #24 ) ) ;
#177 = APPROVAL_PERSON_ORGANIZATION ( #13, #363, #325 ) ;
#178 = CARTESIAN_POINT ( 'NONE',  ( 1.120183596212169716E-15, 0.000000000000000000, 0.3208333333333326931 ) ) ;
#179 = DIRECTION ( 'NONE',  ( 3.491481338843133355E-15, -0.000000000000000000, 1.000000000000000000 ) ) ;
#180 = ORIENTED_EDGE ( 'NONE', *, *, #305, .F. ) ;
#181 = APPROVAL_PERSON_ORGANIZATION ( #33, #83, #274 ) ;
#182 = EDGE_LOOP ( 'NONE', ( #278 ) ) ;
#183 = FACE_OUTER_BOUND ( 'NONE', #297, .T. ) ;
#184 = APPLICATION_PROTOCOL_DEFINITION ( 'international standard', 'config_control_design', 1994, #160 ) ;
#185 = CARTESIAN_POINT ( 'NONE',  ( 1.466422162314116009E-13, 0.000000000000000000, 42.00000000000000000 ) ) ;
#186 = SECURITY_CLASSIFICATION ( '', '', #195 ) ;
#187 = EDGE_LOOP ( 'NONE', ( #233 ) ) ;
#188 = CARTESIAN_POINT ( 'NONE',  ( 2.000000000000045741, 0.000000000000000000, 13.03308152689145238 ) ) ;
#189 = FACE_OUTER_BOUND ( 'NONE', #158, .T. ) ;
#190 = CARTESIAN_POINT ( 'NONE',  ( 2.000000000000141664, 0.000000000000000000, 41.60000000000000142 ) ) ;
#191 = ADVANCED_FACE ( 'NONE', ( #100, #318 ), #194, .F. ) ;
#192 = DIRECTION ( 'NONE',  ( 3.491481338843133355E-15, -0.000000000000000000, 1.000000000000000000 ) ) ;
#193 = CARTESIAN_POINT ( 'NONE',  ( 3.564220533402360304E-15, 0.000000000000000000, 1.020833333333331927 ) ) ;
#194 = TOROIDAL_SURFACE ( 'NONE', #127, 2.034999999999999254, 1.000000000000000000 ) ;
#195 = SECURITY_CLASSIFICATION_LEVEL ( 'unclassified' ) ;
#196 = PRODUCT_DEFINITION ( 'UNKNOWN', '', #11, #44 ) ;
#197 = CARTESIAN_POINT ( 'NONE',  ( 1.452456236958743728E-13, 0.000000000000000000, 41.60000000000000853 ) ) ;
#198 = CARTESIAN_POINT ( 'NONE',  ( 0.000000000000000000, 0.000000000000000000, 0.000000000000000000 ) ) ;
#199 = CARTESIAN_POINT ( 'NONE',  ( 3.337443831735376603E-14, 0.000000000000000000, 9.558819045102515233 ) ) ;
#200 = AXIS2_PLACEMENT_3D ( 'NONE', #269, #341, #61 ) ;
#201 = AXIS2_PLACEMENT_3D ( 'NONE', #137, #333, #364 ) ;
#202 = CARTESIAN_POINT ( 'NONE',  ( 4.888073874380387486E-15, 1.180854811567259910, 1.400000000000000133 ) ) ;
#203 = ORIENTED_EDGE ( 'NONE', *, *, #270, .F. ) ;
#204 = DIRECTION ( 'NONE',  ( 1.000000000000000000, 0.000000000000000000, -3.245281793601471319E-15 ) ) ;
#205 = DIRECTION ( 'NONE',  ( -1.000000000000000000, 0.000000000000000000, 3.491481338843133355E-15 ) ) ;
#206 = EDGE_LOOP ( 'NONE', ( #144 ) ) ;
#207 =( GEOMETRIC_REPRESENTATION_CONTEXT ( 3 ) GLOBAL_UNCERTAINTY_ASSIGNED_CONTEXT ( ( #358 ) ) GLOBAL_UNIT_ASSIGNED_CONTEXT ( ( #98, #377, #95 ) ) REPRESENTATION_CONTEXT ( 'NONE', 'WORKASPACE' ) );
#208 = PLANE ( 'NONE',  #7 ) ;
#209 = ADVANCED_FACE ( 'NONE', ( #354 ), #320, .F. ) ;
#210 = ORIENTED_EDGE ( 'NONE', *, *, #97, .F. ) ;
#211 = ORIENTED_EDGE ( 'NONE', *, *, #73, .T. ) ;
#212 = MECHANICAL_CONTEXT ( 'NONE', #114, 'mechanical' ) ;
#213 = CIRCLE ( 'NONE', #40, 1.599999999999997202 ) ;
#214 = EDGE_LOOP ( 'NONE', ( #210 ) ) ;
#215 = CARTESIAN_POINT ( 'NONE',  ( 1.035000000000031450, 0.000000000000000000, 9.299999999999998934 ) ) ;
#216 = ORIENTED_EDGE ( 'NONE', *, *, #150, .F. ) ;
#217 = EDGE_CURVE ( 'NONE', #313, #313, #241, .T. ) ;
#218 = DIRECTION ( 'NONE',  ( 1.000000000000000000, 0.000000000000000000, -3.245281793601471319E-15 ) ) ;
#219 = AXIS2_PLACEMENT_3D ( 'NONE', #239, #21, #143 ) ;
#220 = DIRECTION ( 'NONE',  ( 3.491481338843133355E-15, -0.000000000000000000, 1.000000000000000000 ) ) ;
#221 = FACE_BOUND ( 'NONE', #371, .T. ) ;
#222 = PERSON_AND_ORGANIZATION ( #118, #260 ) ;
#223 = ADVANCED_FACE ( 'NONE', ( #168, #124 ), #142, .T. ) ;
#224 = DIRECTION ( 'NONE',  ( 3.491481338843133355E-15, -0.000000000000000000, 1.000000000000000000 ) ) ;
#225 = FACE_OUTER_BOUND ( 'NONE', #139, .T. ) ;
#226 = AXIS2_PLACEMENT_3D ( 'NONE', #193, #249, #290 ) ;
#227 = COORDINATED_UNIVERSAL_TIME_OFFSET ( 1, 0, .AHEAD. ) ;
#228 = FACE_OUTER_BOUND ( 'NONE', #122, .T. ) ;
#229 = DIRECTION ( 'NONE',  ( -3.491481338843133355E-15, 0.000000000000000000, -1.000000000000000000 ) ) ;
#230 = CALENDAR_DATE ( 2023, 27, 9 ) ;
#231 = EDGE_CURVE ( 'NONE', #295, #295, #336, .T. ) ;
#232 = CIRCLE ( 'NONE', #71, 1.069074173710928832 ) ;
#233 = ORIENTED_EDGE ( 'NONE', *, *, #270, .T. ) ;
#234 = APPROVAL_PERSON_ORGANIZATION ( #257, #136, #350 ) ;
#235 = DIRECTION ( 'NONE',  ( 3.491481338843133355E-15, -0.000000000000000000, 1.000000000000000000 ) ) ;
#236 = CARTESIAN_POINT ( 'NONE',  ( 4.582569257231616473E-15, 0.000000000000000000, 1.312500000000001110 ) ) ;
#237 = ADVANCED_FACE ( 'NONE', ( #68, #189 ), #36, .T. ) ;
#238 = CC_DESIGN_PERSON_AND_ORGANIZATION_ASSIGNMENT ( #222, #262, ( #186 ) ) ;
#239 = CARTESIAN_POINT ( 'NONE',  ( 4.550476093876269979E-14, 0.000000000000000000, 13.03308152689145949 ) ) ;
#240 = EDGE_CURVE ( 'NONE', #67, #67, #157, .T. ) ;
#241 = CIRCLE ( 'NONE', #115, 1.180854811567259910 ) ;
#242 = CARTESIAN_POINT ( 'NONE',  ( 1.323853340978020871E-15, 0.000000000000000000, 0.3791666666666665408 ) ) ;
#243 = PLANE ( 'NONE',  #79 ) ;
#244 = ORIENTED_EDGE ( 'NONE', *, *, #259, .T. ) ;
#245 = CONICAL_SURFACE ( 'NONE', #308, 1.584999999999999964, 1.047197551196596299 ) ;
#246 = AXIS2_PLACEMENT_3D ( 'NONE', #267, #337, #82 ) ;
#247 = ORIENTED_EDGE ( 'NONE', *, *, #97, .T. ) ;
#248 = ORIENTED_EDGE ( 'NONE', *, *, #146, .F. ) ;
#249 = DIRECTION ( 'NONE',  ( 3.491481338843133355E-15, -0.000000000000000000, 1.000000000000000000 ) ) ;
#250 = VERTEX_POINT ( 'NONE', #120 ) ;
#251 = AXIS2_PLACEMENT_3D ( 'NONE', #199, #266, #204 ) ;
#252 = DIRECTION ( 'NONE',  ( 3.491481338843133355E-15, -0.000000000000000000, 1.000000000000000000 ) ) ;
#253 = DIRECTION ( 'NONE',  ( 1.000000000000000000, 0.000000000000000000, -4.377851043474592034E-15 ) ) ;
#254 = CC_DESIGN_PERSON_AND_ORGANIZATION_ASSIGNMENT ( #51, #289, ( #11 ) ) ;
#255 = CYLINDRICAL_SURFACE ( 'NONE', #300, 1.999999999999998224 ) ;
#256 = PRODUCT_DEFINITION_SHAPE ( 'NONE', 'NONE',  #196 ) ;
#257 = PERSON_AND_ORGANIZATION ( #118, #260 ) ;
#258 = DIRECTION ( 'NONE',  ( 1.000000000000000000, 0.000000000000000000, -3.469446951953620105E-15 ) ) ;
#259 = EDGE_CURVE ( 'NONE', #63, #63, #345, .T. ) ;
#260 = ORGANIZATION ( 'UNSPECIFIED', 'UNSPECIFIED', '' ) ;
#261 = FACE_OUTER_BOUND ( 'NONE', #140, .T. ) ;
#262 = PERSON_AND_ORGANIZATION_ROLE ( 'classification_officer' ) ;
#263 = VERTEX_POINT ( 'NONE', #389 ) ;
#264 = EDGE_LOOP ( 'NONE', ( #94 ) ) ;
#265 = EDGE_LOOP ( 'NONE', ( #65 ) ) ;
#266 = DIRECTION ( 'NONE',  ( 3.491481338843133355E-15, -0.000000000000000000, 1.000000000000000000 ) ) ;
#267 = CARTESIAN_POINT ( 'NONE',  ( 1.466422162314116009E-13, 0.000000000000000000, 42.00000000000000000 ) ) ;
#268 = AXIS2_PLACEMENT_3D ( 'NONE', #387, #138, #327 ) ;
#269 = CARTESIAN_POINT ( 'NONE',  ( 4.888073874380381175E-15, 0.000000000000000000, 1.399999999999998579 ) ) ;
#270 = EDGE_CURVE ( 'NONE', #250, #250, #292, .T. ) ;
#271 = EDGE_LOOP ( 'NONE', ( #151 ) ) ;
#272 = VERTEX_POINT ( 'NONE', #312 ) ;
#273 = EDGE_LOOP ( 'NONE', ( #247 ) ) ;
#274 = APPROVAL_ROLE ( '' ) ;
#275 = CIRCLE ( 'NONE', #340, 1.029300365904982639 ) ;
#276 = LOCAL_TIME ( 7, 49, 9.000000000000000000, #319 ) ;
#277 = EDGE_CURVE ( 'NONE', #347, #347, #328, .T. ) ;
#278 = ORIENTED_EDGE ( 'NONE', *, *, #156, .F. ) ;
#279 = CARTESIAN_POINT ( 'NONE',  ( 3.337443831735376603E-14, 0.000000000000000000, 9.558819045102515233 ) ) ;
#280 = DIRECTION ( 'NONE',  ( 3.491481338843133355E-15, -0.000000000000000000, 1.000000000000000000 ) ) ;
#281 = CIRCLE ( 'NONE', #165, 1.584999999999999964 ) ;
#282 = CC_DESIGN_SECURITY_CLASSIFICATION ( #186, ( #11 ) ) ;
#283 = DIRECTION ( 'NONE',  ( 1.000000000000000000, 0.000000000000000000, -3.352122658892384109E-15 ) ) ;
#284 = APPROVAL_DATE_TIME ( #108, #136 ) ;
#285 = DIRECTION ( 'NONE',  ( 3.491481338843133355E-15, -0.000000000000000000, 1.000000000000000000 ) ) ;
#286 = DATE_AND_TIME ( #15, #276 ) ;
#287 = EDGE_CURVE ( 'NONE', #159, #159, #49, .T. ) ;
#288 = DIRECTION ( 'NONE',  ( 1.000000000000000000, 0.000000000000000000, -3.488971053077043647E-15 ) ) ;
#289 = PERSON_AND_ORGANIZATION_ROLE ( 'creator' ) ;
#290 = DIRECTION ( 'NONE',  ( 1.000000000000000000, 0.000000000000000000, -3.557003972823106077E-15 ) ) ;
#291 = CIRCLE ( 'NONE', #200, 1.034999999999999920 ) ;
#292 = CIRCLE ( 'NONE', #201, 1.180854811567259910 ) ;
#293 = COORDINATED_UNIVERSAL_TIME_OFFSET ( 1, 0, .AHEAD. ) ;
#294 = CYLINDRICAL_SURFACE ( 'NONE', #135, 1.180854811567259910 ) ;
#295 = VERTEX_POINT ( 'NONE', #190 ) ;
#296 = VERTEX_POINT ( 'NONE', #57 ) ;
#297 = EDGE_LOOP ( 'NONE', ( #376 ) ) ;
#298 = CYLINDRICAL_SURFACE ( 'NONE', #246, 1.584999999999999964 ) ;
#299 = CC_DESIGN_PERSON_AND_ORGANIZATION_ASSIGNMENT ( #46, #133, ( #11 ) ) ;
#300 = AXIS2_PLACEMENT_3D ( 'NONE', #357, #384, #102 ) ;
#301 = EDGE_LOOP ( 'NONE', ( #216 ) ) ;
#302 = CC_DESIGN_APPROVAL ( #83, ( #196 ) ) ;
#303 = ADVANCED_FACE ( 'NONE', ( #173, #392 ), #298, .T. ) ;
#304 = CARTESIAN_POINT ( 'NONE',  ( 1.035000000000004805, 0.000000000000000000, 1.399999999999994804 ) ) ;
#305 = EDGE_CURVE ( 'NONE', #272, #272, #87, .T. ) ;
#306 = CARTESIAN_POINT ( 'NONE',  ( 1.180854811567262574, 0.000000000000000000, 0.7874999999999993117 ) ) ;
#307 = ORIENTED_EDGE ( 'NONE', *, *, #101, .T. ) ;
#308 = AXIS2_PLACEMENT_3D ( 'NONE', #32, #27, #91 ) ;
#309 = ADVANCED_FACE ( 'NONE', ( #367, #86 ), #29, .T. ) ;
#310 = DIRECTION ( 'NONE',  ( 3.491481338843133355E-15, -0.000000000000000000, 1.000000000000000000 ) ) ;
#311 = ORIENTED_EDGE ( 'NONE', *, *, #146, .T. ) ;
#312 = CARTESIAN_POINT ( 'NONE',  ( 1.585000000000003739, 0.000000000000000000, 1.079166666666660168 ) ) ;
#313 = VERTEX_POINT ( 'NONE', #306 ) ;
#314 = DIRECTION ( 'NONE',  ( 1.000000000000000000, 0.000000000000000000, -6.704245317784765064E-15 ) ) ;
#315 = CC_DESIGN_APPROVAL ( #363, ( #11 ) ) ;
#316 = ORIENTED_EDGE ( 'NONE', *, *, #240, .T. ) ;
#317 = CARTESIAN_POINT ( 'NONE',  ( 1.466422162314116009E-13, 0.000000000000000000, 42.00000000000000000 ) ) ;
#318 = FACE_OUTER_BOUND ( 'NONE', #344, .T. ) ;
#319 = COORDINATED_UNIVERSAL_TIME_OFFSET ( 1, 0, .AHEAD. ) ;
#320 = PLANE ( 'NONE',  #379 ) ;
#321 = VERTEX_POINT ( 'NONE', #131 ) ;
#322 = DATE_AND_TIME ( #330, #105 ) ;
#323 = PRODUCT ( '955699', '955699', '', ( #212 ) ) ;
#324 = DIRECTION ( 'NONE',  ( -1.000000000000000000, 0.000000000000000000, 3.491481338843133355E-15 ) ) ;
#325 = APPROVAL_ROLE ( '' ) ;
#326 = DIRECTION ( 'NONE',  ( 3.491481338843133355E-15, -0.000000000000000000, 1.000000000000000000 ) ) ;
#327 = DIRECTION ( 'NONE',  ( 1.000000000000000000, 0.000000000000000000, -3.557003972823106077E-15 ) ) ;
#328 = CIRCLE ( 'NONE', #219, 2.000000000000000000 ) ;
#329 = ORIENTED_EDGE ( 'NONE', *, *, #231, .T. ) ;
#330 = CALENDAR_DATE ( 2023, 27, 9 ) ;
#331 = CARTESIAN_POINT ( 'NONE',  ( 1.466422162314116009E-13, 0.000000000000000000, 42.00000000000000000 ) ) ;
#332 = EDGE_LOOP ( 'NONE', ( #391 ) ) ;
#333 = DIRECTION ( 'NONE',  ( 3.491481338843133355E-15, -0.000000000000000000, 1.000000000000000000 ) ) ;
#334 = DIRECTION ( 'NONE',  ( 1.000000000000000000, 0.000000000000000000, -3.491481338843133355E-15 ) ) ;
#335 = ORIENTED_EDGE ( 'NONE', *, *, #73, .F. ) ;
#336 = CIRCLE ( 'NONE', #361, 1.999999999999996669 ) ;
#337 = DIRECTION ( 'NONE',  ( 3.491481338843133355E-15, -0.000000000000000000, 1.000000000000000000 ) ) ;
#338 = FACE_BOUND ( 'NONE', #5, .T. ) ;
#339 = FACE_OUTER_BOUND ( 'NONE', #206, .T. ) ;
#340 = AXIS2_PLACEMENT_3D ( 'NONE', #198, #326, #130 ) ;
#341 = DIRECTION ( 'NONE',  ( 3.491481338843133355E-15, -0.000000000000000000, 1.000000000000000000 ) ) ;
#342 = FACE_OUTER_BOUND ( 'NONE', #182, .T. ) ;
#343 = ADVANCED_FACE ( 'NONE', ( #77, #261 ), #294, .T. ) ;
#344 = EDGE_LOOP ( 'NONE', ( #316 ) ) ;
#345 = CIRCLE ( 'NONE', #172, 1.180854811567259910 ) ;
#346 = DIRECTION ( 'NONE',  ( 3.491481338843133355E-15, -0.000000000000000000, 1.000000000000000000 ) ) ;
#347 = VERTEX_POINT ( 'NONE', #188 ) ;
#348 = DIRECTION ( 'NONE',  ( 1.000000000000000000, 0.000000000000000000, -3.488971053077043647E-15 ) ) ;
#349 = CC_DESIGN_PERSON_AND_ORGANIZATION_ASSIGNMENT ( #388, #128, ( #196 ) ) ;
#350 = APPROVAL_ROLE ( '' ) ;
#351 = DIRECTION ( 'NONE',  ( 3.491481338843133355E-15, -0.000000000000000000, 1.000000000000000000 ) ) ;
#352 = DATE_TIME_ROLE ( 'creation_date' ) ;
#353 = CONICAL_SURFACE ( 'NONE', #6, 1.584999999999999964, 1.047197551196596299 ) ;
#354 = FACE_OUTER_BOUND ( 'NONE', #56, .T. ) ;
#355 = ADVANCED_FACE ( 'NONE', ( #174, #360 ), #55, .T. ) ;
#356 = DATE_AND_TIME ( #230, #90 ) ;
#357 = CARTESIAN_POINT ( 'NONE',  ( 1.466422162314116009E-13, 0.000000000000000000, 42.00000000000000000 ) ) ;
#358 = UNCERTAINTY_MEASURE_WITH_UNIT (LENGTH_MEASURE( 1.000000000000000082E-05 ), #98, 'distance_accuracy_value', 'NONE');
#359 = VERTEX_POINT ( 'NONE', #50 ) ;
#360 = FACE_BOUND ( 'NONE', #264, .T. ) ;
#361 = AXIS2_PLACEMENT_3D ( 'NONE', #134, #346, #258 ) ;
#362 = EDGE_LOOP ( 'NONE', ( #393 ) ) ;
#363 = APPROVAL ( #72, 'UNSPECIFIED' ) ;
#364 = DIRECTION ( 'NONE',  ( 1.000000000000000000, 0.000000000000000000, -3.488971053077043647E-15 ) ) ;
#365 = MANIFOLD_SOLID_BREP ( 'Corps-Déplacer/Copier1', #141 ) ;
#366 = DIRECTION ( 'NONE',  ( 1.000000000000000000, 0.000000000000000000, -3.488971053077043647E-15 ) ) ;
#367 = FACE_OUTER_BOUND ( 'NONE', #362, .T. ) ;
#368 = ADVANCED_FACE ( 'NONE', ( #113, #52 ), #208, .F. ) ;
#369 = FACE_OUTER_BOUND ( 'NONE', #9, .T. ) ;
#370 = ORIENTED_EDGE ( 'NONE', *, *, #287, .T. ) ;
#371 = EDGE_LOOP ( 'NONE', ( #248 ) ) ;
#372 = CONICAL_SURFACE ( 'NONE', #80, 1.999999999999996669, 0.7853981633974504994 ) ;
#373 = CARTESIAN_POINT ( 'NONE',  ( 0.000000000000000000, 0.000000000000000000, 0.000000000000000000 ) ) ;
#374 = ORIENTED_EDGE ( 'NONE', *, *, #217, .F. ) ;
#375 = CARTESIAN_POINT ( 'NONE',  ( 1.600000000000143752, 0.000000000000000000, 41.99999999999999289 ) ) ;
#376 = ORIENTED_EDGE ( 'NONE', *, *, #240, .F. ) ;
#377 =( NAMED_UNIT ( * ) PLANE_ANGLE_UNIT ( ) SI_UNIT ( $, .RADIAN. ) );
#378 = DIRECTION ( 'NONE',  ( -1.000000000000000000, 0.000000000000000000, 3.469446951953620105E-15 ) ) ;
#379 = AXIS2_PLACEMENT_3D ( 'NONE', #164, #74, #324 ) ;
#380 = CARTESIAN_POINT ( 'NONE',  ( 1.323853340978020871E-15, 0.000000000000000000, 0.3791666666666665408 ) ) ;
#381 = ADVANCED_BREP_SHAPE_REPRESENTATION ( '955699', ( #365, #149 ), #207 ) ;
#382 = FACE_OUTER_BOUND ( 'NONE', #273, .T. ) ;
#383 = CALENDAR_DATE ( 2023, 27, 9 ) ;
#384 = DIRECTION ( 'NONE',  ( 3.491481338843133355E-15, -0.000000000000000000, 1.000000000000000000 ) ) ;
#385 = DATE_AND_TIME ( #75, #18 ) ;
#386 = FACE_OUTER_BOUND ( 'NONE', #214, .T. ) ;
#387 = CARTESIAN_POINT ( 'NONE',  ( 3.767890278168211853E-15, 0.000000000000000000, 1.079166666666665719 ) ) ;
#388 = PERSON_AND_ORGANIZATION ( #118, #260 ) ;
#389 = CARTESIAN_POINT ( 'NONE',  ( 1.180854811567262130, 0.000000000000000000, 0.6124999999999978240 ) ) ;
#390 = LOCAL_TIME ( 7, 49, 9.000000000000000000, #48 ) ;
#391 = ORIENTED_EDGE ( 'NONE', *, *, #150, .T. ) ;
#392 = FACE_OUTER_BOUND ( 'NONE', #332, .T. ) ;
#393 = ORIENTED_EDGE ( 'NONE', *, *, #277, .F. ) ;
#394 = DIRECTION ( 'NONE',  ( 3.491481338843133355E-15, -0.000000000000000000, 1.000000000000000000 ) ) ;
#395 = AXIS2_PLACEMENT_3D ( 'NONE', #163, #280, #126 ) ;
ENDSEC;
END-ISO-10303-21;
