ISO-10303-21;
HEADER;
FILE_DESCRIPTION (( 'STEP AP203' ),
    '1' );
FILE_NAME ('955698.step',
    '2023-09-27T05:49:08',
    ( '' ),
    ( '' ),
    'SwSTEP 2.0',
    'SolidWorks 2022',
    '' );
FILE_SCHEMA (( 'CONFIG_CONTROL_DESIGN' ));
ENDSEC;

DATA;
#1 = CARTESIAN_POINT ( 'NONE',  ( 2.691350198691576176E-15, 0.000000000000000000, 0.7708333333333317050 ) ) ;
#2 = CALENDAR_DATE ( 2023, 27, 9 ) ;
#3 = CARTESIAN_POINT ( 'NONE',  ( 1.600000000000143752, 0.000000000000000000, 41.99999999999999289 ) ) ;
#4 = CARTESIAN_POINT ( 'NONE',  ( 9.456095292700081182E-16, 0.000000000000000000, 0.2708333333333312609 ) ) ;
#5 = CONICAL_SURFACE ( 'NONE', #154, 1.199999999999999956, 1.047197551196594079 ) ;
#6 = CC_DESIGN_PERSON_AND_ORGANIZATION_ASSIGNMENT ( #208, #395, ( #80 ) ) ;
#7 = DIRECTION ( 'NONE',  ( -1.000000000000000000, 0.000000000000000000, 3.478481970057660322E-15 ) ) ;
#8 = DATE_TIME_ROLE ( 'classification_date' ) ;
#9 = EDGE_LOOP ( 'NONE', ( #257 ) ) ;
#10 = APPROVAL_ROLE ( '' ) ;
#11 = EDGE_LOOP ( 'NONE', ( #280 ) ) ;
#12 = AXIS2_PLACEMENT_3D ( 'NONE', #327, #232, #209 ) ;
#13 = ORIENTED_EDGE ( 'NONE', *, *, #68, .F. ) ;
#14 = CARTESIAN_POINT ( 'NONE',  ( 3.273263755165440676E-15, 0.000000000000000000, 0.9375000000000008882 ) ) ;
#15 = ORIENTED_EDGE ( 'NONE', *, *, #122, .T. ) ;
#16 = AXIS2_PLACEMENT_3D ( 'NONE', #165, #245, #73 ) ;
#17 = EDGE_LOOP ( 'NONE', ( #70 ) ) ;
#18 = DIRECTION ( 'NONE',  ( 1.000000000000000000, 0.000000000000000000, -3.469446951953617344E-15 ) ) ;
#19 = ADVANCED_FACE ( 'NONE', ( #74, #132 ), #203, .T. ) ;
#20 = DESIGN_CONTEXT ( 'detailed design', #25, 'design' ) ;
#21 = DIRECTION ( 'NONE',  ( 3.491481338843133355E-15, -0.000000000000000000, 1.000000000000000000 ) ) ;
#22 = CARTESIAN_POINT ( 'NONE',  ( 0.000000000000000000, 0.000000000000000000, 0.000000000000000000 ) ) ;
#23 = AXIS2_PLACEMENT_3D ( 'NONE', #391, #290, #18 ) ;
#24 = CYLINDRICAL_SURFACE ( 'NONE', #12, 0.9113248654051853137 ) ;
#25 = APPLICATION_CONTEXT ( 'configuration controlled 3d designs of mechanical parts and assemblies' ) ;
#26 = VERTEX_POINT ( 'NONE', #66 ) ;
#27 = DIRECTION ( 'NONE',  ( 1.000000000000000000, 0.000000000000000000, 0.000000000000000000 ) ) ;
#28 = APPROVAL_STATUS ( 'not_yet_approved' ) ;
#29 = EDGE_CURVE ( 'NONE', #244, #244, #84, .T. ) ;
#30 = DIRECTION ( 'NONE',  ( 3.491481338843133355E-15, -0.000000000000000000, 1.000000000000000000 ) ) ;
#31 = PERSON_AND_ORGANIZATION ( #246, #243 ) ;
#32 = AXIS2_PLACEMENT_3D ( 'NONE', #170, #137, #373 ) ;
#33 = CC_DESIGN_APPROVAL ( #255, ( #204 ) ) ;
#34 = PRODUCT_RELATED_PRODUCT_CATEGORY ( 'detail', '', ( #80 ) ) ;
#35 = DIRECTION ( 'NONE',  ( 1.000000000000000000, 0.000000000000000000, -3.480155121558409139E-15 ) ) ;
#36 = EDGE_LOOP ( 'NONE', ( #339 ) ) ;
#37 = CARTESIAN_POINT ( 'NONE',  ( 1.200000000000002398, 0.000000000000000000, 0.7291666666666654084 ) ) ;
#38 = ORIENTED_EDGE ( 'NONE', *, *, #46, .F. ) ;
#39 = PERSON_AND_ORGANIZATION ( #246, #243 ) ;
#40 = ADVANCED_FACE ( 'NONE', ( #50 ), #199, .F. ) ;
#41 = CARTESIAN_POINT ( 'NONE',  ( 1.200000000000000844, 0.000000000000000000, 0.2291666666666649921 ) ) ;
#42 = AXIS2_PLACEMENT_3D ( 'NONE', #22, #58, #89 ) ;
#43 = EDGE_LOOP ( 'NONE', ( #314 ) ) ;
#44 = VERTEX_POINT ( 'NONE', #126 ) ;
#45 = ORIENTED_EDGE ( 'NONE', *, *, #285, .T. ) ;
#46 = EDGE_CURVE ( 'NONE', #273, #273, #168, .T. ) ;
#47 = EDGE_LOOP ( 'NONE', ( #82 ) ) ;
#48 = AXIS2_PLACEMENT_3D ( 'NONE', #103, #256, #51 ) ;
#49 = CC_DESIGN_DATE_AND_TIME_ASSIGNMENT ( #330, #8, ( #128 ) ) ;
#50 = FACE_OUTER_BOUND ( 'NONE', #161, .T. ) ;
#51 = DIRECTION ( 'NONE',  ( 1.000000000000000000, 0.000000000000000000, -3.082768428425283439E-15 ) ) ;
#52 = EDGE_CURVE ( 'NONE', #44, #44, #376, .T. ) ;
#53 = EDGE_LOOP ( 'NONE', ( #139 ) ) ;
#54 = DIRECTION ( 'NONE',  ( 1.000000000000000000, 0.000000000000000000, -3.469446951953614189E-15 ) ) ;
#55 = EDGE_CURVE ( 'NONE', #307, #307, #247, .T. ) ;
#56 = FACE_OUTER_BOUND ( 'NONE', #336, .T. ) ;
#57 = PLANE ( 'NONE',  #90 ) ;
#58 = DIRECTION ( 'NONE',  ( 0.000000000000000000, 0.000000000000000000, 1.000000000000000000 ) ) ;
#59 = FACE_BOUND ( 'NONE', #306, .T. ) ;
#60 = TOROIDAL_SURFACE ( 'NONE', #350, 1.809999999999999387, 1.000000000000000000 ) ;
#61 = DIRECTION ( 'NONE',  ( 3.491481338843133355E-15, -0.000000000000000000, 1.000000000000000000 ) ) ;
#62 = MECHANICAL_CONTEXT ( 'NONE', #329, 'mechanical' ) ;
#63 = EDGE_CURVE ( 'NONE', #335, #335, #260, .T. ) ;
#64 = DIRECTION ( 'NONE',  ( -1.000000000000000000, 0.000000000000000000, 3.491481338843133355E-15 ) ) ;
#65 = CARTESIAN_POINT ( 'NONE',  ( 1.200000000000000844, 0.000000000000000000, 0.2708333333333270976 ) ) ;
#66 = CARTESIAN_POINT ( 'NONE',  ( 0.9113248654051886444, 0.000000000000000000, 0.9999999999999976685 ) ) ;
#67 = CARTESIAN_POINT ( 'NONE',  ( 9.456095292700081182E-16, 0.000000000000000000, 0.2708333333333312609 ) ) ;
#68 = EDGE_CURVE ( 'NONE', #218, #218, #310, .T. ) ;
#69 = FACE_OUTER_BOUND ( 'NONE', #47, .T. ) ;
#70 = ORIENTED_EDGE ( 'NONE', *, *, #302, .T. ) ;
#71 = DIRECTION ( 'NONE',  ( 3.491481338843133355E-15, -0.000000000000000000, 1.000000000000000000 ) ) ;
#72 = APPROVAL_DATE_TIME ( #191, #151 ) ;
#73 = DIRECTION ( 'NONE',  ( 1.000000000000000000, 0.000000000000000000, -3.523657060577889411E-15 ) ) ;
#74 = FACE_BOUND ( 'NONE', #202, .T. ) ;
#75 = DIRECTION ( 'NONE',  ( 3.491481338843133355E-15, -0.000000000000000000, 1.000000000000000000 ) ) ;
#76 = EDGE_LOOP ( 'NONE', ( #252 ) ) ;
#77 = ADVANCED_FACE ( 'NONE', ( #323, #59 ), #276, .T. ) ;
#78 = APPROVAL_PERSON_ORGANIZATION ( #292, #125, #233 ) ;
#79 = EDGE_LOOP ( 'NONE', ( #222 ) ) ;
#80 = PRODUCT ( '955698', '955698', '', ( #62 ) ) ;
#81 = EDGE_CURVE ( 'NONE', #308, #308, #192, .T. ) ;
#82 = ORIENTED_EDGE ( 'NONE', *, *, #52, .F. ) ;
#83 = FACE_OUTER_BOUND ( 'NONE', #187, .T. ) ;
#84 = CIRCLE ( 'NONE', #163, 1.199999999999999956 ) ;
#85 = EDGE_CURVE ( 'NONE', #277, #277, #169, .T. ) ;
#86 = CYLINDRICAL_SURFACE ( 'NONE', #332, 1.199999999999999956 ) ;
#87 = DIRECTION ( 'NONE',  ( 1.000000000000000000, 0.000000000000000000, -3.212450881438533818E-15 ) ) ;
#88 = PERSON_AND_ORGANIZATION ( #246, #243 ) ;
#89 = DIRECTION ( 'NONE',  ( 1.000000000000000000, 0.000000000000000000, 0.000000000000000000 ) ) ;
#90 = AXIS2_PLACEMENT_3D ( 'NONE', #394, #357, #64 ) ;
#91 = CYLINDRICAL_SURFACE ( 'NONE', #23, 1.999999999999998224 ) ;
#92 = COORDINATED_UNIVERSAL_TIME_OFFSET ( 1, 0, .AHEAD. ) ;
#93 = CALENDAR_DATE ( 2023, 27, 9 ) ;
#94 = DIRECTION ( 'NONE',  ( 3.491481338843133355E-15, -0.000000000000000000, 1.000000000000000000 ) ) ;
#95 = EDGE_LOOP ( 'NONE', ( #15 ) ) ;
#96 = AXIS2_PLACEMENT_3D ( 'NONE', #113, #117, #324 ) ;
#97 = CARTESIAN_POINT ( 'NONE',  ( 0.8440741737109545006, 0.000000000000000000, 7.258819045102509193 ) ) ;
#98 = CARTESIAN_POINT ( 'NONE',  ( 3.491481338843136511E-15, 0.000000000000000000, 1.000000000000000888 ) ) ;
#99 = COORDINATED_UNIVERSAL_TIME_OFFSET ( 1, 0, .AHEAD. ) ;
#100 = CARTESIAN_POINT ( 'NONE',  ( 1.527523085743872223E-15, 0.000000000000000000, 0.4375000000000003886 ) ) ;
#101 = ORIENTED_EDGE ( 'NONE', *, *, #55, .F. ) ;
#102 = EDGE_LOOP ( 'NONE', ( #101 ) ) ;
#103 = CARTESIAN_POINT ( 'NONE',  ( 2.534403123801455300E-14, 0.000000000000000000, 7.258819045102511858 ) ) ;
#104 = AXIS2_PLACEMENT_3D ( 'NONE', #248, #249, #321 ) ;
#105 = CARTESIAN_POINT ( 'NONE',  ( 1.466422162314116009E-13, 1.599999999999997202, 42.00000000000000000 ) ) ;
#106 = AXIS2_PLACEMENT_3D ( 'NONE', #360, #337, #240 ) ;
#107 = CARTESIAN_POINT ( 'NONE',  ( 4.040619065322782736E-14, 0.000000000000000000, 11.57279295859447643 ) ) ;
#108 = EDGE_LOOP ( 'NONE', ( #368 ) ) ;
#109 = CARTESIAN_POINT ( 'NONE',  ( 0.8100000000000034950, 0.000000000000000000, 0.9999999999999981126 ) ) ;
#110 = ADVANCED_FACE ( 'NONE', ( #178, #269 ), #57, .F. ) ;
#111 = FACE_OUTER_BOUND ( 'NONE', #108, .T. ) ;
#112 = CC_DESIGN_PERSON_AND_ORGANIZATION_ASSIGNMENT ( #88, #121, ( #128 ) ) ;
#113 = CARTESIAN_POINT ( 'NONE',  ( 1.452456236958743728E-13, 0.000000000000000000, 41.60000000000000853 ) ) ;
#114 = MANIFOLD_SOLID_BREP ( 'Corps-Déplacer/Copier1', #345 ) ;
#115 = DIRECTION ( 'NONE',  ( 1.000000000000000000, 0.000000000000000000, -3.491481338843133750E-15 ) ) ;
#116 = DATE_AND_TIME ( #390, #185 ) ;
#117 = DIRECTION ( 'NONE',  ( 3.491481338843133355E-15, -0.000000000000000000, 1.000000000000000000 ) ) ;
#118 = CARTESIAN_POINT ( 'NONE',  ( 1.200000000000002398, 0.000000000000000000, 0.7708333333333274862 ) ) ;
#119 = CONICAL_SURFACE ( 'NONE', #106, 0.9113248654051853137, 1.047197551196594079 ) ;
#120 = FACE_OUTER_BOUND ( 'NONE', #279, .T. ) ;
#121 = PERSON_AND_ORGANIZATION_ROLE ( 'classification_officer' ) ;
#122 = EDGE_CURVE ( 'NONE', #141, #141, #393, .T. ) ;
#123 = DIRECTION ( 'NONE',  ( -1.000000000000000000, 0.000000000000000000, 3.523657060577889411E-15 ) ) ;
#124 = APPROVAL_DATE_TIME ( #353, #125 ) ;
#125 = APPROVAL ( #265, 'UNSPECIFIED' ) ;
#126 = CARTESIAN_POINT ( 'NONE',  ( 0.8030716899321306279, 0.000000000000000000, -2.803909819151252987E-15 ) ) ;
#127 = ORIENTED_EDGE ( 'NONE', *, *, #317, .T. ) ;
#128 = SECURITY_CLASSIFICATION ( '', '', #214 ) ;
#129 = FACE_BOUND ( 'NONE', #17, .T. ) ;
#130 = DIRECTION ( 'NONE',  ( -3.491481338843133355E-15, 0.000000000000000000, -1.000000000000000000 ) ) ;
#131 = CONICAL_SURFACE ( 'NONE', #371, 1.199999999999999956, 1.047197551196594079 ) ;
#132 = FACE_OUTER_BOUND ( 'NONE', #53, .T. ) ;
#133 = EDGE_LOOP ( 'NONE', ( #282 ) ) ;
#134 = CARTESIAN_POINT ( 'NONE',  ( 2.000000000000141664, 0.000000000000000000, 41.60000000000000142 ) ) ;
#135 = DIRECTION ( 'NONE',  ( 3.491481338843133355E-15, -0.000000000000000000, 1.000000000000000000 ) ) ;
#136 = AXIS2_PLACEMENT_3D ( 'NONE', #107, #226, #54 ) ;
#137 = DIRECTION ( 'NONE',  ( 3.491481338843133355E-15, -0.000000000000000000, 1.000000000000000000 ) ) ;
#138 = AXIS2_PLACEMENT_3D ( 'NONE', #175, #180, #149 ) ;
#139 = ORIENTED_EDGE ( 'NONE', *, *, #85, .T. ) ;
#140 = ADVANCED_FACE ( 'NONE', ( #294, #291 ), #60, .F. ) ;
#141 = VERTEX_POINT ( 'NONE', #258 ) ;
#142 = FACE_OUTER_BOUND ( 'NONE', #43, .T. ) ;
#143 = CARTESIAN_POINT ( 'NONE',  ( 2.444036937190193349E-14, 0.000000000000000000, 7.000000000000000000 ) ) ;
#144 =( GEOMETRIC_REPRESENTATION_CONTEXT ( 3 ) GLOBAL_UNCERTAINTY_ASSIGNED_CONTEXT ( ( #251 ) ) GLOBAL_UNIT_ASSIGNED_CONTEXT ( ( #184, #392, #150 ) ) REPRESENTATION_CONTEXT ( 'NONE', 'WORKASPACE' ) );
#145 = ADVANCED_FACE ( 'NONE', ( #298, #211 ), #370, .T. ) ;
#146 = CYLINDRICAL_SURFACE ( 'NONE', #229, 1.199999999999999956 ) ;
#147 = APPLICATION_PROTOCOL_DEFINITION ( 'international standard', 'config_control_design', 1994, #329 ) ;
#148 = CC_DESIGN_DATE_AND_TIME_ASSIGNMENT ( #116, #181, ( #196 ) ) ;
#149 = DIRECTION ( 'NONE',  ( 1.000000000000000000, 0.000000000000000000, 0.000000000000000000 ) ) ;
#150 =( NAMED_UNIT ( * ) SI_UNIT ( $, .STERADIAN. ) SOLID_ANGLE_UNIT ( ) );
#151 = APPROVAL ( #242, 'UNSPECIFIED' ) ;
#152 = CARTESIAN_POINT ( 'NONE',  ( 0.000000000000000000, 0.000000000000000000, 0.000000000000000000 ) ) ;
#153 = PERSON_AND_ORGANIZATION_ROLE ( 'design_supplier' ) ;
#154 = AXIS2_PLACEMENT_3D ( 'NONE', #67, #130, #7 ) ;
#155 = AXIS2_PLACEMENT_3D ( 'NONE', #100, #71, #270 ) ;
#156 = PLANE ( 'NONE',  #364 ) ;
#157 = ADVANCED_FACE ( 'NONE', ( #262, #235 ), #24, .T. ) ;
#158 = DIRECTION ( 'NONE',  ( 1.000000000000000000, 0.000000000000000000, -3.569096642623010007E-15 ) ) ;
#159 = EDGE_LOOP ( 'NONE', ( #347 ) ) ;
#160 = CARTESIAN_POINT ( 'NONE',  ( 1.963958253099264484E-15, 0.000000000000000000, 0.5625000000000004441 ) ) ;
#161 = EDGE_LOOP ( 'NONE', ( #241 ) ) ;
#162 = SHAPE_DEFINITION_REPRESENTATION ( #283, #343 ) ;
#163 = AXIS2_PLACEMENT_3D ( 'NONE', #342, #75, #197 ) ;
#164 = FACE_OUTER_BOUND ( 'NONE', #11, .T. ) ;
#165 = CARTESIAN_POINT ( 'NONE',  ( 2.691350198691576176E-15, 0.000000000000000000, 0.7708333333333317050 ) ) ;
#166 = EDGE_LOOP ( 'NONE', ( #13 ) ) ;
#167 = EDGE_LOOP ( 'NONE', ( #344 ) ) ;
#168 = CIRCLE ( 'NONE', #384, 1.599999999999997202 ) ;
#169 = CIRCLE ( 'NONE', #96, 1.999999999999996669 ) ;
#170 = CARTESIAN_POINT ( 'NONE',  ( 0.000000000000000000, 0.000000000000000000, 0.000000000000000000 ) ) ;
#171 = EDGE_LOOP ( 'NONE', ( #45 ) ) ;
#172 = EDGE_LOOP ( 'NONE', ( #200 ) ) ;
#173 = ORIENTED_EDGE ( 'NONE', *, *, #81, .T. ) ;
#174 = AXIS2_PLACEMENT_3D ( 'NONE', #296, #264, #212 ) ;
#175 = CARTESIAN_POINT ( 'NONE',  ( 1.466422162314116009E-13, 0.000000000000000000, 42.00000000000000000 ) ) ;
#176 = DIRECTION ( 'NONE',  ( 1.000000000000000000, 0.000000000000000000, -3.491481338843133355E-15 ) ) ;
#177 = APPLICATION_PROTOCOL_DEFINITION ( 'international standard', 'config_control_design', 1994, #25 ) ;
#178 = FACE_BOUND ( 'NONE', #289, .T. ) ;
#179 = AXIS2_PLACEMENT_3D ( 'NONE', #160, #275, #300 ) ;
#180 = DIRECTION ( 'NONE',  ( 3.491481338843133355E-15, -0.000000000000000000, 1.000000000000000000 ) ) ;
#181 = DATE_TIME_ROLE ( 'creation_date' ) ;
#182 = CARTESIAN_POINT ( 'NONE',  ( 2.444036937190193033E-14, 0.000000000000000000, 6.999999999999999112 ) ) ;
#183 = APPROVAL_DATE_TIME ( #210, #255 ) ;
#184 =( LENGTH_UNIT ( ) NAMED_UNIT ( * ) SI_UNIT ( .MILLI., .METRE. ) );
#185 = LOCAL_TIME ( 7, 49, 8.000000000000000000, #272 ) ;
#186 = CARTESIAN_POINT ( 'NONE',  ( 3.491481338843136511E-15, 0.000000000000000000, 1.000000000000000888 ) ) ;
#187 = EDGE_LOOP ( 'NONE', ( #333 ) ) ;
#188 = FACE_OUTER_BOUND ( 'NONE', #271, .T. ) ;
#189 = CARTESIAN_POINT ( 'NONE',  ( 2.000000000000040412, 0.000000000000000000, 11.57279295859446933 ) ) ;
#190 = ORIENTED_EDGE ( 'NONE', *, *, #317, .F. ) ;
#191 = DATE_AND_TIME ( #315, #288 ) ;
#192 = CIRCLE ( 'NONE', #174, 1.199999999999999956 ) ;
#193 = CIRCLE ( 'NONE', #303, 1.199999999999999956 ) ;
#194 = FACE_OUTER_BOUND ( 'NONE', #9, .T. ) ;
#195 = EDGE_LOOP ( 'NONE', ( #190 ) ) ;
#196 = PRODUCT_DEFINITION ( 'UNKNOWN', '', #204, #20 ) ;
#197 = DIRECTION ( 'NONE',  ( 1.000000000000000000, 0.000000000000000000, -3.523657060577889411E-15 ) ) ;
#198 = CIRCLE ( 'NONE', #223, 0.9113248654051852027 ) ;
#199 = PLANE ( 'NONE',  #301 ) ;
#200 = ORIENTED_EDGE ( 'NONE', *, *, #52, .T. ) ;
#201 = ADVANCED_FACE ( 'NONE', ( #259, #120 ), #146, .T. ) ;
#202 = EDGE_LOOP ( 'NONE', ( #38 ) ) ;
#203 = CONICAL_SURFACE ( 'NONE', #104, 1.999999999999996669, 0.7853981633974504994 ) ;
#204 = PRODUCT_DEFINITION_FORMATION_WITH_SPECIFIED_SOURCE ( 'ANY', '', #80, .NOT_KNOWN. ) ;
#205 = FACE_OUTER_BOUND ( 'NONE', #238, .T. ) ;
#206 = ADVANCED_FACE ( 'NONE', ( #205, #349 ), #351, .T. ) ;
#207 = CARTESIAN_POINT ( 'NONE',  ( 2.534403123801455300E-14, 0.000000000000000000, 7.258819045102511858 ) ) ;
#208 = PERSON_AND_ORGANIZATION ( #246, #243 ) ;
#209 = DIRECTION ( 'NONE',  ( 1.000000000000000000, 0.000000000000000000, 0.000000000000000000 ) ) ;
#210 = DATE_AND_TIME ( #2, #340 ) ;
#211 = FACE_BOUND ( 'NONE', #172, .T. ) ;
#212 = DIRECTION ( 'NONE',  ( 1.000000000000000000, 0.000000000000000000, -3.501069515317774866E-15 ) ) ;
#213 = VERTEX_POINT ( 'NONE', #118 ) ;
#214 = SECURITY_CLASSIFICATION_LEVEL ( 'unclassified' ) ;
#215 = DIRECTION ( 'NONE',  ( 1.000000000000000000, 0.000000000000000000, -3.491481338843133355E-15 ) ) ;
#216 = AXIS2_PLACEMENT_3D ( 'NONE', #152, #30, #176 ) ;
#217 = FACE_BOUND ( 'NONE', #195, .T. ) ;
#218 = VERTEX_POINT ( 'NONE', #189 ) ;
#219 = CC_DESIGN_PERSON_AND_ORGANIZATION_ASSIGNMENT ( #328, #263, ( #196 ) ) ;
#220 = DIRECTION ( 'NONE',  ( 3.491481338843133355E-15, -0.000000000000000000, 1.000000000000000000 ) ) ;
#221 = AXIS2_PLACEMENT_3D ( 'NONE', #182, #21, #87 ) ;
#222 = ORIENTED_EDGE ( 'NONE', *, *, #63, .F. ) ;
#223 = AXIS2_PLACEMENT_3D ( 'NONE', #186, #278, #158 ) ;
#224 = DIRECTION ( 'NONE',  ( -3.491481338843133355E-15, 0.000000000000000000, -1.000000000000000000 ) ) ;
#225 = ADVANCED_FACE ( 'NONE', ( #83, #56 ), #383, .T. ) ;
#226 = DIRECTION ( 'NONE',  ( 3.491481338843133355E-15, -0.000000000000000000, 1.000000000000000000 ) ) ;
#227 = ORIENTED_EDGE ( 'NONE', *, *, #302, .F. ) ;
#228 = CARTESIAN_POINT ( 'NONE',  ( 0.9113248654051872011, 0.000000000000000000, 0.5624999999999973355 ) ) ;
#229 = AXIS2_PLACEMENT_3D ( 'NONE', #234, #325, #354 ) ;
#230 = FACE_OUTER_BOUND ( 'NONE', #76, .T. ) ;
#231 = CC_DESIGN_SECURITY_CLASSIFICATION ( #128, ( #204 ) ) ;
#232 = DIRECTION ( 'NONE',  ( 3.491481338843133355E-15, -0.000000000000000000, 1.000000000000000000 ) ) ;
#233 = APPROVAL_ROLE ( '' ) ;
#234 = CARTESIAN_POINT ( 'NONE',  ( 1.466422162314116009E-13, 0.000000000000000000, 42.00000000000000000 ) ) ;
#235 = FACE_OUTER_BOUND ( 'NONE', #375, .T. ) ;
#236 = DIRECTION ( 'NONE',  ( 3.491481338843133355E-15, -0.000000000000000000, 1.000000000000000000 ) ) ;
#237 = COORDINATED_UNIVERSAL_TIME_OFFSET ( 1, 0, .AHEAD. ) ;
#238 = EDGE_LOOP ( 'NONE', ( #365 ) ) ;
#239 = PERSON_AND_ORGANIZATION ( #246, #243 ) ;
#240 = DIRECTION ( 'NONE',  ( 1.000000000000000000, 0.000000000000000000, -3.450126754535576393E-15 ) ) ;
#241 = ORIENTED_EDGE ( 'NONE', *, *, #46, .T. ) ;
#242 = APPROVAL_STATUS ( 'not_yet_approved' ) ;
#243 = ORGANIZATION ( 'UNSPECIFIED', 'UNSPECIFIED', '' ) ;
#244 = VERTEX_POINT ( 'NONE', #37 ) ;
#245 = DIRECTION ( 'NONE',  ( 3.491481338843133355E-15, -0.000000000000000000, 1.000000000000000000 ) ) ;
#246 = PERSON ( 'UNSPECIFIED', 'UNSPECIFIED', 'UNSPECIFIED', ('UNSPECIFIED'), ('UNSPECIFIED'), ('UNSPECIFIED') ) ;
#247 = CIRCLE ( 'NONE', #48, 0.8440741737109290765 ) ;
#248 = CARTESIAN_POINT ( 'NONE',  ( 1.452456236958743728E-13, 0.000000000000000000, 41.60000000000000853 ) ) ;
#249 = DIRECTION ( 'NONE',  ( -3.491481338843133355E-15, 0.000000000000000000, -1.000000000000000000 ) ) ;
#250 = VERTEX_POINT ( 'NONE', #228 ) ;
#251 = UNCERTAINTY_MEASURE_WITH_UNIT (LENGTH_MEASURE( 1.000000000000000082E-05 ), #184, 'distance_accuracy_value', 'NONE');
#252 = ORIENTED_EDGE ( 'NONE', *, *, #29, .T. ) ;
#253 = AXIS2_PLACEMENT_3D ( 'NONE', #14, #135, #379 ) ;
#254 = AXIS2_PLACEMENT_3D ( 'NONE', #207, #352, #386 ) ;
#255 = APPROVAL ( #28, 'UNSPECIFIED' ) ;
#256 = DIRECTION ( 'NONE',  ( 3.491481338843133355E-15, -0.000000000000000000, 1.000000000000000000 ) ) ;
#257 = ORIENTED_EDGE ( 'NONE', *, *, #380, .T. ) ;
#258 = CARTESIAN_POINT ( 'NONE',  ( 0.8100000000000239231, 0.000000000000000000, 6.999999999999996447 ) ) ;
#259 = FACE_OUTER_BOUND ( 'NONE', #159, .T. ) ;
#260 = CIRCLE ( 'NONE', #253, 0.9113248654051853137 ) ;
#261 = CC_DESIGN_APPROVAL ( #125, ( #196 ) ) ;
#262 = FACE_OUTER_BOUND ( 'NONE', #381, .T. ) ;
#263 = PERSON_AND_ORGANIZATION_ROLE ( 'creator' ) ;
#264 = DIRECTION ( 'NONE',  ( 3.491481338843133355E-15, -0.000000000000000000, 1.000000000000000000 ) ) ;
#265 = APPROVAL_STATUS ( 'not_yet_approved' ) ;
#266 = ADVANCED_FACE ( 'NONE', ( #267, #111 ), #91, .T. ) ;
#267 = FACE_OUTER_BOUND ( 'NONE', #36, .T. ) ;
#268 = COORDINATED_UNIVERSAL_TIME_OFFSET ( 1, 0, .AHEAD. ) ;
#269 = FACE_OUTER_BOUND ( 'NONE', #133, .T. ) ;
#270 = DIRECTION ( 'NONE',  ( 1.000000000000000000, 0.000000000000000000, -3.509611698579293397E-15 ) ) ;
#271 = EDGE_LOOP ( 'NONE', ( #309 ) ) ;
#272 = COORDINATED_UNIVERSAL_TIME_OFFSET ( 1, 0, .AHEAD. ) ;
#273 = VERTEX_POINT ( 'NONE', #3 ) ;
#274 = ADVANCED_FACE ( 'NONE', ( #142, #230 ), #86, .T. ) ;
#275 = DIRECTION ( 'NONE',  ( 3.491481338843133355E-15, -0.000000000000000000, 1.000000000000000000 ) ) ;
#276 = CONICAL_SURFACE ( 'NONE', #254, 0.8440741737109290765, 0.2617993877991427465 ) ;
#277 = VERTEX_POINT ( 'NONE', #134 ) ;
#278 = DIRECTION ( 'NONE',  ( 3.491481338843133355E-15, -0.000000000000000000, 1.000000000000000000 ) ) ;
#279 = EDGE_LOOP ( 'NONE', ( #173 ) ) ;
#280 = ORIENTED_EDGE ( 'NONE', *, *, #29, .F. ) ;
#281 = LOCAL_TIME ( 7, 49, 8.000000000000000000, #237 ) ;
#282 = ORIENTED_EDGE ( 'NONE', *, *, #388, .T. ) ;
#283 = PRODUCT_DEFINITION_SHAPE ( 'NONE', 'NONE',  #196 ) ;
#284 = CARTESIAN_POINT ( 'NONE',  ( 1.466422162314116009E-13, 0.000000000000000000, 42.00000000000000000 ) ) ;
#285 = EDGE_CURVE ( 'NONE', #382, #382, #311, .T. ) ;
#286 = DIRECTION ( 'NONE',  ( -1.000000000000000000, 0.000000000000000000, 3.491481338843133355E-15 ) ) ;
#287 = LOCAL_TIME ( 7, 49, 8.000000000000000000, #92 ) ;
#288 = LOCAL_TIME ( 7, 49, 8.000000000000000000, #99 ) ;
#289 = EDGE_LOOP ( 'NONE', ( #372 ) ) ;
#290 = DIRECTION ( 'NONE',  ( 3.491481338843133355E-15, -0.000000000000000000, 1.000000000000000000 ) ) ;
#291 = FACE_OUTER_BOUND ( 'NONE', #95, .T. ) ;
#292 = PERSON_AND_ORGANIZATION ( #246, #243 ) ;
#293 = APPROVAL_PERSON_ORGANIZATION ( #361, #255, #387 ) ;
#294 = FACE_OUTER_BOUND ( 'NONE', #102, .T. ) ;
#295 = ADVANCED_FACE ( 'NONE', ( #164, #129 ), #119, .T. ) ;
#296 = CARTESIAN_POINT ( 'NONE',  ( 8.001311401515602357E-16, 0.000000000000000000, 0.2291666666666691832 ) ) ;
#297 = CC_DESIGN_PERSON_AND_ORGANIZATION_ASSIGNMENT ( #239, #299, ( #204 ) ) ;
#298 = FACE_OUTER_BOUND ( 'NONE', #167, .T. ) ;
#299 = PERSON_AND_ORGANIZATION_ROLE ( 'creator' ) ;
#300 = DIRECTION ( 'NONE',  ( 1.000000000000000000, 0.000000000000000000, -3.450126754535576393E-15 ) ) ;
#301 = AXIS2_PLACEMENT_3D ( 'NONE', #105, #224, #286 ) ;
#302 = EDGE_CURVE ( 'NONE', #250, #250, #356, .T. ) ;
#303 = AXIS2_PLACEMENT_3D ( 'NONE', #4, #94, #363 ) ;
#304 = CALENDAR_DATE ( 2023, 27, 9 ) ;
#305 = FACE_BOUND ( 'NONE', #79, .T. ) ;
#306 = EDGE_LOOP ( 'NONE', ( #348 ) ) ;
#307 = VERTEX_POINT ( 'NONE', #97 ) ;
#308 = VERTEX_POINT ( 'NONE', #41 ) ;
#309 = ORIENTED_EDGE ( 'NONE', *, *, #312, .T. ) ;
#310 = CIRCLE ( 'NONE', #136, 2.000000000000000000 ) ;
#311 = CIRCLE ( 'NONE', #322, 0.8100000000000000533 ) ;
#312 = EDGE_CURVE ( 'NONE', #374, #374, #193, .T. ) ;
#313 = DIRECTION ( 'NONE',  ( 1.000000000000000000, 0.000000000000000000, -5.782411586589357244E-15 ) ) ;
#314 = ORIENTED_EDGE ( 'NONE', *, *, #380, .F. ) ;
#315 = CALENDAR_DATE ( 2023, 27, 9 ) ;
#316 = DIRECTION ( 'NONE',  ( 1.000000000000000000, 0.000000000000000000, -4.336808689942025625E-15 ) ) ;
#317 = EDGE_CURVE ( 'NONE', #359, #359, #377, .T. ) ;
#318 = DIRECTION ( 'NONE',  ( 3.491481338843133355E-15, -0.000000000000000000, 1.000000000000000000 ) ) ;
#319 = ADVANCED_FACE ( 'NONE', ( #69 ), #156, .F. ) ;
#320 = ORIENTED_EDGE ( 'NONE', *, *, #63, .T. ) ;
#321 = DIRECTION ( 'NONE',  ( -1.000000000000000000, 0.000000000000000000, 3.469446951953620105E-15 ) ) ;
#322 = AXIS2_PLACEMENT_3D ( 'NONE', #98, #236, #35 ) ;
#323 = FACE_OUTER_BOUND ( 'NONE', #166, .T. ) ;
#324 = DIRECTION ( 'NONE',  ( 1.000000000000000000, 0.000000000000000000, -3.469446951953620105E-15 ) ) ;
#325 = DIRECTION ( 'NONE',  ( 3.491481338843133355E-15, -0.000000000000000000, 1.000000000000000000 ) ) ;
#326 = CARTESIAN_POINT ( 'NONE',  ( 1.466422162314116009E-13, 0.000000000000000000, 42.00000000000000000 ) ) ;
#327 = CARTESIAN_POINT ( 'NONE',  ( 1.466422162314116009E-13, 0.000000000000000000, 42.00000000000000000 ) ) ;
#328 = PERSON_AND_ORGANIZATION ( #246, #243 ) ;
#329 = APPLICATION_CONTEXT ( 'configuration controlled 3d designs of mechanical parts and assemblies' ) ;
#330 = DATE_AND_TIME ( #93, #281 ) ;
#331 = CARTESIAN_POINT ( 'NONE',  ( 1.006907050246331896E-32, 0.000000000000000000, 2.883896411085961164E-18 ) ) ;
#332 = AXIS2_PLACEMENT_3D ( 'NONE', #362, #220, #313 ) ;
#333 = ORIENTED_EDGE ( 'NONE', *, *, #388, .F. ) ;
#334 = APPROVAL_PERSON_ORGANIZATION ( #39, #151, #10 ) ;
#335 = VERTEX_POINT ( 'NONE', #366 ) ;
#336 = EDGE_LOOP ( 'NONE', ( #320 ) ) ;
#337 = DIRECTION ( 'NONE',  ( 3.491481338843133355E-15, -0.000000000000000000, 1.000000000000000000 ) ) ;
#338 = DIRECTION ( 'NONE',  ( 3.491481338843133355E-15, -0.000000000000000000, 1.000000000000000000 ) ) ;
#339 = ORIENTED_EDGE ( 'NONE', *, *, #85, .F. ) ;
#340 = LOCAL_TIME ( 7, 49, 8.000000000000000000, #268 ) ;
#341 = ADVANCED_FACE ( 'NONE', ( #305, #194 ), #131, .T. ) ;
#342 = CARTESIAN_POINT ( 'NONE',  ( 2.545871809573128590E-15, 0.000000000000000000, 0.7291666666666696273 ) ) ;
#343 = ADVANCED_BREP_SHAPE_REPRESENTATION ( '955698', ( #114, #42 ), #144 ) ;
#344 = ORIENTED_EDGE ( 'NONE', *, *, #81, .F. ) ;
#345 = CLOSED_SHELL ( 'NONE', ( #319, #145, #201, #367, #157, #295, #274, #341, #225, #110, #206, #140, #77, #266, #19, #40 ) ) ;
#346 = AXIS2_PLACEMENT_3D ( 'NONE', #326, #61, #27 ) ;
#347 = ORIENTED_EDGE ( 'NONE', *, *, #312, .F. ) ;
#348 = ORIENTED_EDGE ( 'NONE', *, *, #55, .T. ) ;
#349 = FACE_OUTER_BOUND ( 'NONE', #171, .T. ) ;
#350 = AXIS2_PLACEMENT_3D ( 'NONE', #143, #389, #115 ) ;
#351 = CYLINDRICAL_SURFACE ( 'NONE', #346, 0.8099999999999997202 ) ;
#352 = DIRECTION ( 'NONE',  ( 3.491481338843133355E-15, -0.000000000000000000, 1.000000000000000000 ) ) ;
#353 = DATE_AND_TIME ( #304, #287 ) ;
#354 = DIRECTION ( 'NONE',  ( 1.000000000000000000, 0.000000000000000000, -5.782411586589357244E-15 ) ) ;
#355 = CARTESIAN_POINT ( 'NONE',  ( 0.9113248654051866460, 0.000000000000000000, 0.4374999999999971689 ) ) ;
#356 = CIRCLE ( 'NONE', #179, 0.9113248654051853137 ) ;
#357 = DIRECTION ( 'NONE',  ( -3.491481338843133355E-15, 0.000000000000000000, -1.000000000000000000 ) ) ;
#358 = CC_DESIGN_PERSON_AND_ORGANIZATION_ASSIGNMENT ( #31, #153, ( #204 ) ) ;
#359 = VERTEX_POINT ( 'NONE', #355 ) ;
#360 = CARTESIAN_POINT ( 'NONE',  ( 1.963958253099264484E-15, 0.000000000000000000, 0.5625000000000004441 ) ) ;
#361 = PERSON_AND_ORGANIZATION ( #246, #243 ) ;
#362 = CARTESIAN_POINT ( 'NONE',  ( 1.466422162314116009E-13, 0.000000000000000000, 42.00000000000000000 ) ) ;
#363 = DIRECTION ( 'NONE',  ( 1.000000000000000000, 0.000000000000000000, -3.478481970057660322E-15 ) ) ;
#364 = AXIS2_PLACEMENT_3D ( 'NONE', #331, #338, #215 ) ;
#365 = ORIENTED_EDGE ( 'NONE', *, *, #122, .F. ) ;
#366 = CARTESIAN_POINT ( 'NONE',  ( 0.9113248654051885334, 0.000000000000000000, 0.9374999999999976685 ) ) ;
#367 = ADVANCED_FACE ( 'NONE', ( #217, #188 ), #5, .T. ) ;
#368 = ORIENTED_EDGE ( 'NONE', *, *, #68, .T. ) ;
#369 = DIRECTION ( 'NONE',  ( -3.491481338843133355E-15, 0.000000000000000000, -1.000000000000000000 ) ) ;
#370 = CONICAL_SURFACE ( 'NONE', #216, 0.8030716899321306279, 1.047197551196594745 ) ;
#371 = AXIS2_PLACEMENT_3D ( 'NONE', #1, #369, #123 ) ;
#372 = ORIENTED_EDGE ( 'NONE', *, *, #285, .F. ) ;
#373 = DIRECTION ( 'NONE',  ( 1.000000000000000000, 0.000000000000000000, -3.491481338843133355E-15 ) ) ;
#374 = VERTEX_POINT ( 'NONE', #65 ) ;
#375 = EDGE_LOOP ( 'NONE', ( #127 ) ) ;
#376 = CIRCLE ( 'NONE', #32, 0.8030716899321306279 ) ;
#377 = CIRCLE ( 'NONE', #155, 0.9113248654051852027 ) ;
#378 = CC_DESIGN_APPROVAL ( #151, ( #128 ) ) ;
#379 = DIRECTION ( 'NONE',  ( 1.000000000000000000, 0.000000000000000000, -3.450126754535576393E-15 ) ) ;
#380 = EDGE_CURVE ( 'NONE', #213, #213, #385, .T. ) ;
#381 = EDGE_LOOP ( 'NONE', ( #227 ) ) ;
#382 = VERTEX_POINT ( 'NONE', #109 ) ;
#383 = CYLINDRICAL_SURFACE ( 'NONE', #138, 0.9113248654051853137 ) ;
#384 = AXIS2_PLACEMENT_3D ( 'NONE', #284, #318, #316 ) ;
#385 = CIRCLE ( 'NONE', #16, 1.199999999999999956 ) ;
#386 = DIRECTION ( 'NONE',  ( 1.000000000000000000, 0.000000000000000000, -3.082768428425283439E-15 ) ) ;
#387 = APPROVAL_ROLE ( '' ) ;
#388 = EDGE_CURVE ( 'NONE', #26, #26, #198, .T. ) ;
#389 = DIRECTION ( 'NONE',  ( 3.491481338843133355E-15, -0.000000000000000000, 1.000000000000000000 ) ) ;
#390 = CALENDAR_DATE ( 2023, 27, 9 ) ;
#391 = CARTESIAN_POINT ( 'NONE',  ( 1.466422162314116009E-13, 0.000000000000000000, 42.00000000000000000 ) ) ;
#392 =( NAMED_UNIT ( * ) PLANE_ANGLE_UNIT ( ) SI_UNIT ( $, .RADIAN. ) );
#393 = CIRCLE ( 'NONE', #221, 0.8099999999999994982 ) ;
#394 = CARTESIAN_POINT ( 'NONE',  ( 3.491481338843133355E-15, 0.9113248654051852027, 1.000000000000000000 ) ) ;
#395 = PERSON_AND_ORGANIZATION_ROLE ( 'design_owner' ) ;
ENDSEC;
END-ISO-10303-21;
