ISO-10303-21;
HEADER;
FILE_DESCRIPTION (( 'STEP AP203' ),
    '1' );
FILE_NAME ('955685.step',
    '2021-11-29T14:49:32',
    ( '' ),
    ( '' ),
    'SwSTEP 2.0',
    'SolidWorks 2019',
    '' );
FILE_SCHEMA (( 'CONFIG_CONTROL_DESIGN' ));
ENDSEC;

DATA;
#1 = CARTESIAN_POINT ( 'NONE',  ( 0.0000000000000000000, 0.0000000000000000000, 0.0000000000000000000 ) ) ;
#2 = APPROVAL_PERSON_ORGANIZATION ( #122, #186, #13 ) ;
#3 = DATE_TIME_ROLE ( 'creation_date' ) ;
#4 = DIRECTION ( 'NONE',  ( -4.275831445896957731E-31, -1.000000000000000000, -1.224646799147352961E-16 ) ) ;
#5 = CALENDAR_DATE ( 2021, 29, 11 ) ;
#6 = DIRECTION ( 'NONE',  ( 0.0000000000000000000, -1.000000000000000000, 0.0000000000000000000 ) ) ;
#7 = COORDINATED_UNIVERSAL_TIME_OFFSET ( 1, 0, .AHEAD. ) ;
#8 = APPROVAL_PERSON_ORGANIZATION ( #272, #263, #193 ) ;
#9 = APPROVAL_STATUS ( 'not_yet_approved' ) ;
#10 = FACE_OUTER_BOUND ( 'NONE', #81, .T. ) ;
#11 = ORIENTED_EDGE ( 'NONE', *, *, #96, .T. ) ;
#12 = DIRECTION ( 'NONE',  ( 0.0000000000000000000, 1.000000000000000000, 0.0000000000000000000 ) ) ;
#13 = APPROVAL_ROLE ( '' ) ;
#14 = ORIENTED_EDGE ( 'NONE', *, *, #291, .T. ) ;
#15 = CARTESIAN_POINT ( 'NONE',  ( 6.280491014476897100E-14, -2.202899706890974152E-15, 17.98804119216021391 ) ) ;
#16 = EDGE_CURVE ( 'NONE', #92, #92, #25, .T. ) ;
#17 = DIRECTION ( 'NONE',  ( -3.491481338843133355E-15, 1.224646799147352961E-16, -1.000000000000000000 ) ) ;
#18 = ADVANCED_FACE ( 'NONE', ( #22, #252 ), #166, .T. ) ;
#19 = APPROVAL_PERSON_ORGANIZATION ( #287, #212, #151 ) ;
#20 = DIRECTION ( 'NONE',  ( 0.0000000000000000000, 1.000000000000000000, 0.0000000000000000000 ) ) ;
#21 = CARTESIAN_POINT ( 'NONE',  ( 1.326762908760390423E-13, 1.199999999999998845, 38.00000000000000000 ) ) ;
#22 = FACE_OUTER_BOUND ( 'NONE', #161, .T. ) ;
#23 = CARTESIAN_POINT ( 'NONE',  ( 1.745740669421566678E-14, 0.5484999999999993214, 5.000000000000000000 ) ) ;
#24 = DIRECTION ( 'NONE',  ( -3.491481338843133355E-15, 1.224646799147352961E-16, -1.000000000000000000 ) ) ;
#25 = CIRCLE ( 'NONE', #115, 0.5053844939755809396 ) ;
#26 = CC_DESIGN_APPROVAL ( #186, ( #229 ) ) ;
#27 = APPLICATION_PROTOCOL_DEFINITION ( 'international standard', 'config_control_design', 1994, #106 ) ;
#28 = CARTESIAN_POINT ( 'NONE',  ( 1.745740669421566678E-14, 4.113091203950132912E-33, 5.000000000000000000 ) ) ;
#29 = AXIS2_PLACEMENT_3D ( 'NONE', #194, #128, #243 ) ;
#30 = DATE_AND_TIME ( #5, #284 ) ;
#31 = PLANE ( 'NONE',  #39 ) ;
#32 = PLANE ( 'NONE',  #185 ) ;
#33 = DIRECTION ( 'NONE',  ( -3.511266990678647475E-31, -1.000000000000000000, -9.883337944261674764E-17 ) ) ;
#34 = CALENDAR_DATE ( 2021, 29, 11 ) ;
#35 = CC_DESIGN_PERSON_AND_ORGANIZATION_ASSIGNMENT ( #101, #174, ( #262 ) ) ;
#36 = DIRECTION ( 'NONE',  ( -3.491481338843133355E-15, 1.224646799147352961E-16, -1.000000000000000000 ) ) ;
#37 = DIRECTION ( 'NONE',  ( -3.491481338843133355E-15, 1.224646799147352961E-16, -1.000000000000000000 ) ) ;
#38 = EDGE_LOOP ( 'NONE', ( #299 ) ) ;
#39 = AXIS2_PLACEMENT_3D ( 'NONE', #178, #58, #149 ) ;
#40 = DIRECTION ( 'NONE',  ( -3.491481338843133355E-15, 1.224646799147352961E-16, -1.000000000000000000 ) ) ;
#41 = DIRECTION ( 'NONE',  ( 0.0000000000000000000, 1.000000000000000000, 0.0000000000000000000 ) ) ;
#42 = ADVANCED_FACE ( 'NONE', ( #89 ), #183, .F. ) ;
#43 = CARTESIAN_POINT ( 'NONE',  ( 8.728703347107831416E-16, -3.061616997868381785E-17, 0.2499999999999999445 ) ) ;
#44 = CIRCLE ( 'NONE', #171, 0.4041624327025948871 ) ;
#45 = CARTESIAN_POINT ( 'NONE',  ( 0.0000000000000000000, 0.0000000000000000000, 0.0000000000000000000 ) ) ;
#46 = PRODUCT_DEFINITION ( 'UNKNOWN', '', #150, #50 ) ;
#47 = CLOSED_SHELL ( 'NONE', ( #248, #231, #239, #303, #235, #93, #18, #155 ) ) ;
#48 = CARTESIAN_POINT ( 'NONE',  ( 6.280491014476897100E-14, 1.499999999999995559, 17.98804119216021391 ) ) ;
#49 = DIRECTION ( 'NONE',  ( 4.275831445896958607E-31, 1.000000000000000000, 1.224646799147352961E-16 ) ) ;
#50 = DESIGN_CONTEXT ( 'detailed design', #190, 'design' ) ;
#51 = CARTESIAN_POINT ( 'NONE',  ( 1.745740669421566678E-14, 0.5484999999999993214, 5.000000000000000000 ) ) ;
#52 = CONICAL_SURFACE ( 'NONE', #76, 1.499999999999997558, 0.1745329251994261199 ) ;
#53 = EDGE_CURVE ( 'NONE', #114, #114, #44, .T. ) ;
#54 = PERSON_AND_ORGANIZATION ( #74, #139 ) ;
#55 = EDGE_LOOP ( 'NONE', ( #158 ) ) ;
#56 = FACE_OUTER_BOUND ( 'NONE', #274, .T. ) ;
#57 = PERSON_AND_ORGANIZATION ( #74, #139 ) ;
#58 = DIRECTION ( 'NONE',  ( -3.491481338843133355E-15, 1.224646799147352961E-16, -1.000000000000000000 ) ) ;
#59 = PERSON_AND_ORGANIZATION_ROLE ( 'creator' ) ;
#60 = EDGE_LOOP ( 'NONE', ( #228 ) ) ;
#61 = CC_DESIGN_APPROVAL ( #212, ( #150 ) ) ;
#62 = FACE_BOUND ( 'NONE', #211, .T. ) ;
#63 = APPROVAL_DATE_TIME ( #236, #263 ) ;
#64 = DIRECTION ( 'NONE',  ( -4.275831445896957731E-31, -1.000000000000000000, -1.224646799147352961E-16 ) ) ;
#65 = DIRECTION ( 'NONE',  ( -3.491481338843133355E-15, 1.224646799147352961E-16, -1.000000000000000000 ) ) ;
#66 = CIRCLE ( 'NONE', #301, 1.500000000000003331 ) ;
#67 = EDGE_CURVE ( 'NONE', #210, #210, #83, .T. ) ;
#68 = EDGE_LOOP ( 'NONE', ( #73 ) ) ;
#69 = FACE_OUTER_BOUND ( 'NONE', #224, .T. ) ;
#70 = EDGE_CURVE ( 'NONE', #188, #188, #237, .T. ) ;
#71 = CONICAL_SURFACE ( 'NONE', #103, 0.5484999999999993214, 0.5235987755982927094 ) ;
#72 = VERTEX_POINT ( 'NONE', #163 ) ;
#73 = ORIENTED_EDGE ( 'NONE', *, *, #16, .T. ) ;
#74 = PERSON ( 'UNSPECIFIED', 'UNSPECIFIED', 'UNSPECIFIED', ('UNSPECIFIED'), ('UNSPECIFIED'), ('UNSPECIFIED') ) ;
#75 = PRODUCT_DEFINITION_SHAPE ( 'NONE', 'NONE',  #46 ) ;
#76 = AXIS2_PLACEMENT_3D ( 'NONE', #15, #203, #6 ) ;
#77 =( NAMED_UNIT ( * ) PLANE_ANGLE_UNIT ( ) SI_UNIT ( $, .RADIAN. ) );
#78 = PERSON_AND_ORGANIZATION_ROLE ( 'creator' ) ;
#79 = CYLINDRICAL_SURFACE ( 'NONE', #142, 0.5484999999999996545 ) ;
#80 = DIRECTION ( 'NONE',  ( -3.491481338843133355E-15, 1.224646799147352961E-16, -1.000000000000000000 ) ) ;
#81 = EDGE_LOOP ( 'NONE', ( #152 ) ) ;
#82 = DATE_AND_TIME ( #119, #191 ) ;
#83 = CIRCLE ( 'NONE', #226, 0.5484999999999999876 ) ;
#84 =( GEOMETRIC_REPRESENTATION_CONTEXT ( 3 ) GLOBAL_UNCERTAINTY_ASSIGNED_CONTEXT ( ( #215 ) ) GLOBAL_UNIT_ASSIGNED_CONTEXT ( ( #258, #77, #213 ) ) REPRESENTATION_CONTEXT ( 'NONE', 'WORKASPACE' ) );
#85 = DIRECTION ( 'NONE',  ( -3.491481338843133355E-15, 1.224646799147352961E-16, -1.000000000000000000 ) ) ;
#86 = CARTESIAN_POINT ( 'NONE',  ( 1.745740669421566678E-14, -6.123233995736765296E-16, 5.000000000000000000 ) ) ;
#87 = EDGE_CURVE ( 'NONE', #88, #88, #204, .T. ) ;
#88 = VERTEX_POINT ( 'NONE', #21 ) ;
#89 = FACE_OUTER_BOUND ( 'NONE', #55, .T. ) ;
#90 = AXIS2_PLACEMENT_3D ( 'NONE', #294, #80, #267 ) ;
#91 = EDGE_LOOP ( 'NONE', ( #124 ) ) ;
#92 = VERTEX_POINT ( 'NONE', #140 ) ;
#93 = ADVANCED_FACE ( 'NONE', ( #257, #69 ), #256, .T. ) ;
#94 = CARTESIAN_POINT ( 'NONE',  ( -9.463679131915806782E-32, 0.4041624327025948871, -2.710505431213761701E-17 ) ) ;
#95 = PERSON_AND_ORGANIZATION_ROLE ( 'design_supplier' ) ;
#96 = EDGE_CURVE ( 'NONE', #182, #182, #279, .T. ) ;
#97 = FACE_OUTER_BOUND ( 'NONE', #154, .T. ) ;
#98 = AXIS2_PLACEMENT_3D ( 'NONE', #1, #192, #167 ) ;
#99 = PERSON_AND_ORGANIZATION_ROLE ( 'classification_officer' ) ;
#100 = ADVANCED_FACE ( 'NONE', ( #109 ), #189, .T. ) ;
#101 = PERSON_AND_ORGANIZATION ( #74, #139 ) ;
#102 = ORIENTED_EDGE ( 'NONE', *, *, #16, .F. ) ;
#103 = AXIS2_PLACEMENT_3D ( 'NONE', #200, #218, #33 ) ;
#104 = CC_DESIGN_PERSON_AND_ORGANIZATION_ASSIGNMENT ( #217, #59, ( #46 ) ) ;
#105 = MANIFOLD_SOLID_BREP ( 'Corps-Déplacer/Copier1[2]', #184 ) ;
#106 = APPLICATION_CONTEXT ( 'configuration controlled 3d designs of mechanical parts and assemblies' ) ;
#107 = MANIFOLD_SOLID_BREP ( 'Corps-Déplacer/Copier1[1]', #47 ) ;
#108 = AXIS2_PLACEMENT_3D ( 'NONE', #43, #85, #136 ) ;
#109 = FACE_OUTER_BOUND ( 'NONE', #292, .T. ) ;
#110 = VERTEX_POINT ( 'NONE', #51 ) ;
#111 = ORIENTED_EDGE ( 'NONE', *, *, #87, .T. ) ;
#112 = FACE_OUTER_BOUND ( 'NONE', #68, .T. ) ;
#113 = MECHANICAL_CONTEXT ( 'NONE', #106, 'mechanical' ) ;
#114 = VERTEX_POINT ( 'NONE', #94 ) ;
#115 = AXIS2_PLACEMENT_3D ( 'NONE', #208, #65, #277 ) ;
#116 = EDGE_CURVE ( 'NONE', #110, #110, #135, .T. ) ;
#117 = APPROVAL_STATUS ( 'not_yet_approved' ) ;
#118 = APPROVAL_STATUS ( 'not_yet_approved' ) ;
#119 = CALENDAR_DATE ( 2021, 29, 11 ) ;
#120 = ORIENTED_EDGE ( 'NONE', *, *, #87, .F. ) ;
#121 = CARTESIAN_POINT ( 'NONE',  ( 1.745740669421566678E-14, 4.113091203950132912E-33, 5.000000000000000000 ) ) ;
#122 = PERSON_AND_ORGANIZATION ( #74, #139 ) ;
#123 = FACE_BOUND ( 'NONE', #181, .T. ) ;
#124 = ORIENTED_EDGE ( 'NONE', *, *, #67, .F. ) ;
#125 = DATE_TIME_ROLE ( 'classification_date' ) ;
#126 = ORIENTED_EDGE ( 'NONE', *, *, #116, .T. ) ;
#127 = DIRECTION ( 'NONE',  ( -3.491481338843133355E-15, 1.224646799147352961E-16, -1.000000000000000000 ) ) ;
#128 = DIRECTION ( 'NONE',  ( -3.491481338843133355E-15, 1.224646799147352961E-16, -1.000000000000000000 ) ) ;
#129 = CARTESIAN_POINT ( 'NONE',  ( 6.280491014476897100E-14, -2.202899706890974152E-15, 17.98804119216021391 ) ) ;
#130 = ADVANCED_FACE ( 'NONE', ( #123, #10 ), #71, .T. ) ;
#131 = EDGE_LOOP ( 'NONE', ( #102 ) ) ;
#132 = AXIS2_PLACEMENT_3D ( 'NONE', #129, #37, #156 ) ;
#133 = CARTESIAN_POINT ( 'NONE',  ( -2.674498352191549006E-31, 9.380877422708760391E-33, -7.660067726662164304E-17 ) ) ;
#134 = CARTESIAN_POINT ( 'NONE',  ( 1.790189229004846433E-14, -6.279138555829329837E-16, 5.127305734356315980 ) ) ;
#135 = CIRCLE ( 'NONE', #29, 0.5484999999999999876 ) ;
#136 = DIRECTION ( 'NONE',  ( 3.511266990678647475E-31, 1.000000000000000000, 9.883337944261674764E-17 ) ) ;
#137 = CARTESIAN_POINT ( 'NONE',  ( 4.189777606611760026E-14, 0.4749999999999984235, 12.00000000000000000 ) ) ;
#138 = DIRECTION ( 'NONE',  ( 4.275831445896957731E-31, 1.000000000000000000, 1.224646799147352961E-16 ) ) ;
#139 = ORGANIZATION ( 'UNSPECIFIED', 'UNSPECIFIED', '' ) ;
#140 = CARTESIAN_POINT ( 'NONE',  ( 4.311035480981395782E-14, 0.5053844939755793852, 12.34729635533384595 ) ) ;
#141 = CARTESIAN_POINT ( 'NONE',  ( 8.728703347107833388E-16, 0.5484999999999993214, 0.2500000000000000000 ) ) ;
#142 = AXIS2_PLACEMENT_3D ( 'NONE', #289, #36, #238 ) ;
#143 = CARTESIAN_POINT ( 'NONE',  ( 4.189777606611760026E-14, -1.469576158976823750E-15, 12.00000000000000000 ) ) ;
#144 = COORDINATED_UNIVERSAL_TIME_OFFSET ( 1, 0, .AHEAD. ) ;
#145 = FACE_OUTER_BOUND ( 'NONE', #147, .T. ) ;
#146 = CALENDAR_DATE ( 2021, 29, 11 ) ;
#147 = EDGE_LOOP ( 'NONE', ( #201 ) ) ;
#148 = DIRECTION ( 'NONE',  ( -3.491481338843133355E-15, 1.224646799147352961E-16, -1.000000000000000000 ) ) ;
#149 = DIRECTION ( 'NONE',  ( 4.275831445896957731E-31, 1.000000000000000000, 1.224646799147352961E-16 ) ) ;
#150 = PRODUCT_DEFINITION_FORMATION_WITH_SPECIFIED_SOURCE ( 'ANY', '', #262, .NOT_KNOWN. ) ;
#151 = APPROVAL_ROLE ( '' ) ;
#152 = ORIENTED_EDGE ( 'NONE', *, *, #70, .T. ) ;
#153 = FACE_OUTER_BOUND ( 'NONE', #38, .T. ) ;
#154 = EDGE_LOOP ( 'NONE', ( #126 ) ) ;
#155 = ADVANCED_FACE ( 'NONE', ( #175 ), #31, .F. ) ;
#156 = DIRECTION ( 'NONE',  ( 0.0000000000000000000, 1.000000000000000000, 0.0000000000000000000 ) ) ;
#157 = ADVANCED_BREP_SHAPE_REPRESENTATION ( '955685', ( #107, #105, #98 ), #84 ) ;
#158 = ORIENTED_EDGE ( 'NONE', *, *, #53, .T. ) ;
#159 = DIRECTION ( 'NONE',  ( 3.491481338843133355E-15, -1.224646799147352961E-16, 1.000000000000000000 ) ) ;
#160 = CC_DESIGN_PERSON_AND_ORGANIZATION_ASSIGNMENT ( #268, #95, ( #150 ) ) ;
#161 = EDGE_LOOP ( 'NONE', ( #209 ) ) ;
#162 = AXIS2_PLACEMENT_3D ( 'NONE', #134, #230, #20 ) ;
#163 = CARTESIAN_POINT ( 'NONE',  ( 1.316288464743861212E-13, 1.499999999999998668, 37.69999999999999574 ) ) ;
#164 = DIRECTION ( 'NONE',  ( -4.275831445896957731E-31, -1.000000000000000000, -1.224646799147352961E-16 ) ) ;
#165 = FACE_OUTER_BOUND ( 'NONE', #281, .T. ) ;
#166 = CONICAL_SURFACE ( 'NONE', #293, 1.200000000000003286, 0.7853981633974453924 ) ;
#167 = DIRECTION ( 'NONE',  ( 1.000000000000000000, 0.0000000000000000000, 0.0000000000000000000 ) ) ;
#168 = DIRECTION ( 'NONE',  ( 3.491481338843133355E-15, -1.224646799147352961E-16, 1.000000000000000000 ) ) ;
#169 = COORDINATED_UNIVERSAL_TIME_OFFSET ( 1, 0, .AHEAD. ) ;
#170 = AXIS2_PLACEMENT_3D ( 'NONE', #28, #168, #4 ) ;
#171 = AXIS2_PLACEMENT_3D ( 'NONE', #133, #17, #138 ) ;
#172 = FACE_BOUND ( 'NONE', #131, .T. ) ;
#173 = COORDINATED_UNIVERSAL_TIME_OFFSET ( 1, 0, .AHEAD. ) ;
#174 = PERSON_AND_ORGANIZATION_ROLE ( 'design_owner' ) ;
#175 = FACE_OUTER_BOUND ( 'NONE', #197, .T. ) ;
#176 = LOCAL_TIME ( 15, 49, 32.00000000000000000, #7 ) ;
#177 = EDGE_CURVE ( 'NONE', #259, #259, #297, .T. ) ;
#178 = CARTESIAN_POINT ( 'NONE',  ( 1.326762908760390423E-13, 8.998558695971099120E-33, 38.00000000000000000 ) ) ;
#179 = PRODUCT_RELATED_PRODUCT_CATEGORY ( 'detail', '', ( #262 ) ) ;
#180 = DIRECTION ( 'NONE',  ( 0.0000000000000000000, 1.000000000000000000, 0.0000000000000000000 ) ) ;
#181 = EDGE_LOOP ( 'NONE', ( #276 ) ) ;
#182 = VERTEX_POINT ( 'NONE', #282 ) ;
#183 = PLANE ( 'NONE',  #195 ) ;
#184 = CLOSED_SHELL ( 'NONE', ( #42, #130, #219, #100 ) ) ;
#185 = AXIS2_PLACEMENT_3D ( 'NONE', #121, #221, #64 ) ;
#186 = APPROVAL ( #9, 'UNSPECIFIED' ) ;
#187 = DIRECTION ( 'NONE',  ( 0.0000000000000000000, 1.000000000000000000, 0.0000000000000000000 ) ) ;
#188 = VERTEX_POINT ( 'NONE', #141 ) ;
#189 = PLANE ( 'NONE',  #170 ) ;
#190 = APPLICATION_CONTEXT ( 'configuration controlled 3d designs of mechanical parts and assemblies' ) ;
#191 = LOCAL_TIME ( 15, 49, 32.00000000000000000, #269 ) ;
#192 = DIRECTION ( 'NONE',  ( 0.0000000000000000000, 0.0000000000000000000, 1.000000000000000000 ) ) ;
#193 = APPROVAL_ROLE ( '' ) ;
#194 = CARTESIAN_POINT ( 'NONE',  ( 1.745740669421566678E-14, -6.123233995736765296E-16, 5.000000000000000000 ) ) ;
#195 = AXIS2_PLACEMENT_3D ( 'NONE', #300, #159, #164 ) ;
#196 = CYLINDRICAL_SURFACE ( 'NONE', #90, 0.4749999999999995337 ) ;
#197 = EDGE_LOOP ( 'NONE', ( #120 ) ) ;
#198 = FACE_OUTER_BOUND ( 'NONE', #302, .T. ) ;
#199 = APPROVAL_DATE_TIME ( #240, #186 ) ;
#200 = CARTESIAN_POINT ( 'NONE',  ( 8.728703347107831416E-16, -3.061616997868381785E-17, 0.2499999999999999445 ) ) ;
#201 = ORIENTED_EDGE ( 'NONE', *, *, #177, .T. ) ;
#202 = CC_DESIGN_DATE_AND_TIME_ASSIGNMENT ( #242, #125, ( #229 ) ) ;
#203 = DIRECTION ( 'NONE',  ( 3.491481338843133355E-15, -1.224646799147352961E-16, 1.000000000000000000 ) ) ;
#204 = CIRCLE ( 'NONE', #216, 1.200000000000003286 ) ;
#205 = EDGE_LOOP ( 'NONE', ( #296 ) ) ;
#206 = CC_DESIGN_PERSON_AND_ORGANIZATION_ASSIGNMENT ( #57, #78, ( #150 ) ) ;
#207 = CONICAL_SURFACE ( 'NONE', #220, 0.4749999999999992006, 0.5235987755982925984 ) ;
#208 = CARTESIAN_POINT ( 'NONE',  ( 4.311035480981395782E-14, -1.512107695968337265E-15, 12.34729635533384595 ) ) ;
#209 = ORIENTED_EDGE ( 'NONE', *, *, #291, .F. ) ;
#210 = VERTEX_POINT ( 'NONE', #23 ) ;
#211 = EDGE_LOOP ( 'NONE', ( #11 ) ) ;
#212 = APPROVAL ( #118, 'UNSPECIFIED' ) ;
#213 =( NAMED_UNIT ( * ) SI_UNIT ( $, .STERADIAN. ) SOLID_ANGLE_UNIT ( ) );
#214 = AXIS2_PLACEMENT_3D ( 'NONE', #45, #254, #232 ) ;
#215 = UNCERTAINTY_MEASURE_WITH_UNIT (LENGTH_MEASURE( 1.000000000000000082E-05 ), #258, 'distance_accuracy_value', 'NONE');
#216 = AXIS2_PLACEMENT_3D ( 'NONE', #278, #24, #180 ) ;
#217 = PERSON_AND_ORGANIZATION ( #74, #139 ) ;
#218 = DIRECTION ( 'NONE',  ( 3.491481338843133355E-15, -1.224646799147352961E-16, 1.000000000000000000 ) ) ;
#219 = ADVANCED_FACE ( 'NONE', ( #198, #97 ), #79, .T. ) ;
#220 = AXIS2_PLACEMENT_3D ( 'NONE', #245, #127, #12 ) ;
#221 = DIRECTION ( 'NONE',  ( 3.491481338843133355E-15, -1.224646799147352961E-16, 1.000000000000000000 ) ) ;
#222 = EDGE_LOOP ( 'NONE', ( #111 ) ) ;
#223 = SECURITY_CLASSIFICATION_LEVEL ( 'unclassified' ) ;
#224 = EDGE_LOOP ( 'NONE', ( #14 ) ) ;
#225 = DIRECTION ( 'NONE',  ( -3.491481338843133355E-15, 1.224646799147352961E-16, -1.000000000000000000 ) ) ;
#226 = AXIS2_PLACEMENT_3D ( 'NONE', #86, #233, #298 ) ;
#227 = CC_DESIGN_DATE_AND_TIME_ASSIGNMENT ( #30, #3, ( #46 ) ) ;
#228 = ORIENTED_EDGE ( 'NONE', *, *, #96, .F. ) ;
#229 = SECURITY_CLASSIFICATION ( '', '', #223 ) ;
#230 = DIRECTION ( 'NONE',  ( -3.491481338843133355E-15, 1.224646799147352961E-16, -1.000000000000000000 ) ) ;
#231 = ADVANCED_FACE ( 'NONE', ( #241, #62 ), #207, .T. ) ;
#232 = DIRECTION ( 'NONE',  ( 4.275831445896957731E-31, 1.000000000000000000, 1.224646799147353207E-16 ) ) ;
#233 = DIRECTION ( 'NONE',  ( -3.491481338843133355E-15, 1.224646799147352961E-16, -1.000000000000000000 ) ) ;
#234 = CIRCLE ( 'NONE', #132, 1.499999999999997558 ) ;
#235 = ADVANCED_FACE ( 'NONE', ( #172, #153 ), #52, .T. ) ;
#236 = DATE_AND_TIME ( #34, #244 ) ;
#237 = CIRCLE ( 'NONE', #108, 0.5484999999999993214 ) ;
#238 = DIRECTION ( 'NONE',  ( 4.275831445896957731E-31, 1.000000000000000000, 1.224646799147352961E-16 ) ) ;
#239 = ADVANCED_FACE ( 'NONE', ( #265, #145 ), #196, .T. ) ;
#240 = DATE_AND_TIME ( #288, #176 ) ;
#241 = FACE_OUTER_BOUND ( 'NONE', #91, .T. ) ;
#242 = DATE_AND_TIME ( #146, #270 ) ;
#243 = DIRECTION ( 'NONE',  ( 0.0000000000000000000, 1.000000000000000000, 0.0000000000000000000 ) ) ;
#244 = LOCAL_TIME ( 15, 49, 32.00000000000000000, #173 ) ;
#245 = CARTESIAN_POINT ( 'NONE',  ( 1.790189229004846433E-14, -6.279138555829329837E-16, 5.127305734356315980 ) ) ;
#246 = APPROVAL_DATE_TIME ( #82, #212 ) ;
#247 = ORIENTED_EDGE ( 'NONE', *, *, #177, .F. ) ;
#248 = ADVANCED_FACE ( 'NONE', ( #56 ), #32, .F. ) ;
#249 = CARTESIAN_POINT ( 'NONE',  ( 1.316288464743861212E-13, -4.616918432785520292E-15, 37.69999999999999574 ) ) ;
#250 = ORIENTED_EDGE ( 'NONE', *, *, #116, .F. ) ;
#251 = AXIS2_PLACEMENT_3D ( 'NONE', #280, #285, #49 ) ;
#252 = FACE_BOUND ( 'NONE', #222, .T. ) ;
#253 = CARTESIAN_POINT ( 'NONE',  ( 1.326762908760390423E-13, -4.653657836759941152E-15, 38.00000000000000000 ) ) ;
#254 = DIRECTION ( 'NONE',  ( -3.491481338843133355E-15, 1.224646799147352961E-16, -1.000000000000000000 ) ) ;
#255 = AXIS2_PLACEMENT_3D ( 'NONE', #143, #148, #271 ) ;
#256 = CYLINDRICAL_SURFACE ( 'NONE', #214, 1.500000000000000444 ) ;
#257 = FACE_OUTER_BOUND ( 'NONE', #205, .T. ) ;
#258 =( LENGTH_UNIT ( ) NAMED_UNIT ( * ) SI_UNIT ( .MILLI., .METRE. ) );
#259 = VERTEX_POINT ( 'NONE', #137 ) ;
#260 = CC_DESIGN_APPROVAL ( #263, ( #46 ) ) ;
#261 = CC_DESIGN_SECURITY_CLASSIFICATION ( #229, ( #150 ) ) ;
#262 = PRODUCT ( '955685', '955685', '', ( #113 ) ) ;
#263 = APPROVAL ( #117, 'UNSPECIFIED' ) ;
#264 = SHAPE_DEFINITION_REPRESENTATION ( #75, #157 ) ;
#265 = FACE_OUTER_BOUND ( 'NONE', #60, .T. ) ;
#266 = APPLICATION_PROTOCOL_DEFINITION ( 'international standard', 'config_control_design', 1994, #190 ) ;
#267 = DIRECTION ( 'NONE',  ( 4.275831445896956855E-31, 1.000000000000000000, 1.224646799147352961E-16 ) ) ;
#268 = PERSON_AND_ORGANIZATION ( #74, #139 ) ;
#269 = COORDINATED_UNIVERSAL_TIME_OFFSET ( 1, 0, .AHEAD. ) ;
#270 = LOCAL_TIME ( 15, 49, 32.00000000000000000, #169 ) ;
#271 = DIRECTION ( 'NONE',  ( 0.0000000000000000000, 1.000000000000000000, 0.0000000000000000000 ) ) ;
#272 = PERSON_AND_ORGANIZATION ( #74, #139 ) ;
#273 = ORIENTED_EDGE ( 'NONE', *, *, #70, .F. ) ;
#274 = EDGE_LOOP ( 'NONE', ( #290 ) ) ;
#275 = TOROIDAL_SURFACE ( 'NONE', #251, 2.474999999999999645, 2.000000000000000000 ) ;
#276 = ORIENTED_EDGE ( 'NONE', *, *, #53, .F. ) ;
#277 = DIRECTION ( 'NONE',  ( 0.0000000000000000000, 1.000000000000000000, 0.0000000000000000000 ) ) ;
#278 = CARTESIAN_POINT ( 'NONE',  ( 1.326762908760390423E-13, -4.653657836759941152E-15, 38.00000000000000000 ) ) ;
#279 = CIRCLE ( 'NONE', #162, 0.4749999999999992006 ) ;
#280 = CARTESIAN_POINT ( 'NONE',  ( 4.189777606611760026E-14, -1.301042606982605321E-15, 12.00000000000000000 ) ) ;
#281 = EDGE_LOOP ( 'NONE', ( #247 ) ) ;
#282 = CARTESIAN_POINT ( 'NONE',  ( 1.790189229004846433E-14, 0.4749999999999985345, 5.127305734356315980 ) ) ;
#283 = VERTEX_POINT ( 'NONE', #48 ) ;
#284 = LOCAL_TIME ( 15, 49, 32.00000000000000000, #144 ) ;
#285 = DIRECTION ( 'NONE',  ( -3.491481338843133355E-15, 1.224646799147352961E-16, -1.000000000000000000 ) ) ;
#286 = EDGE_CURVE ( 'NONE', #283, #283, #234, .T. ) ;
#287 = PERSON_AND_ORGANIZATION ( #74, #139 ) ;
#288 = CALENDAR_DATE ( 2021, 29, 11 ) ;
#289 = CARTESIAN_POINT ( 'NONE',  ( 0.0000000000000000000, 0.0000000000000000000, 0.0000000000000000000 ) ) ;
#290 = ORIENTED_EDGE ( 'NONE', *, *, #67, .T. ) ;
#291 = EDGE_CURVE ( 'NONE', #72, #72, #66, .T. ) ;
#292 = EDGE_LOOP ( 'NONE', ( #250 ) ) ;
#293 = AXIS2_PLACEMENT_3D ( 'NONE', #253, #40, #41 ) ;
#294 = CARTESIAN_POINT ( 'NONE',  ( 0.0000000000000000000, 0.0000000000000000000, 0.0000000000000000000 ) ) ;
#295 = CC_DESIGN_PERSON_AND_ORGANIZATION_ASSIGNMENT ( #54, #99, ( #229 ) ) ;
#296 = ORIENTED_EDGE ( 'NONE', *, *, #286, .F. ) ;
#297 = CIRCLE ( 'NONE', #255, 0.4749999999999998668 ) ;
#298 = DIRECTION ( 'NONE',  ( 0.0000000000000000000, 1.000000000000000000, 0.0000000000000000000 ) ) ;
#299 = ORIENTED_EDGE ( 'NONE', *, *, #286, .T. ) ;
#300 = CARTESIAN_POINT ( 'NONE',  ( -1.337249176095774503E-31, 4.690438711354380195E-33, -3.830033863331082152E-17 ) ) ;
#301 = AXIS2_PLACEMENT_3D ( 'NONE', #249, #225, #187 ) ;
#302 = EDGE_LOOP ( 'NONE', ( #273 ) ) ;
#303 = ADVANCED_FACE ( 'NONE', ( #165, #112 ), #275, .F. ) ;
ENDSEC;
END-ISO-10303-21;
