ISO-10303-21;
HEADER;
FILE_DESCRIPTION (( 'STEP AP203' ),
    '1' );
FILE_NAME ('955396.step',
    '2021-11-10T12:11:22',
    ( '' ),
    ( '' ),
    'SwSTEP 2.0',
    'SolidWorks 2019',
    '' );
FILE_SCHEMA (( 'CONFIG_CONTROL_DESIGN' ));
ENDSEC;

DATA;
#1 = ORIENTED_EDGE ( 'NONE', *, *, #90, .T. ) ;
#2 = PERSON_AND_ORGANIZATION ( #133, #13 ) ;
#3 = DIRECTION ( 'NONE',  ( 0.0000000000000000000, 1.000000000000000000, 0.0000000000000000000 ) ) ;
#4 = PERSON_AND_ORGANIZATION_ROLE ( 'classification_officer' ) ;
#5 = CARTESIAN_POINT ( 'NONE',  ( 1.047444401652940007E-13, -3.673940397442059178E-15, 30.00000000000000000 ) ) ;
#6 = VERTEX_POINT ( 'NONE', #27 ) ;
#7 = CARTESIAN_POINT ( 'NONE',  ( 3.612429800294230373E-14, -1.301042606982605321E-15, 10.34641016151377357 ) ) ;
#8 = AXIS2_PLACEMENT_3D ( 'NONE', #44, #211, #23 ) ;
#9 = CARTESIAN_POINT ( 'NONE',  ( 1.209484614510976881E-15, 0.5999999999999998668, 0.3464101615137737400 ) ) ;
#10 = CARTESIAN_POINT ( 'NONE',  ( 3.491481338843133254E-12, -1.224646799147353249E-13, 1000.000000000000000 ) ) ;
#11 = CC_DESIGN_PERSON_AND_ORGANIZATION_ASSIGNMENT ( #2, #221, ( #235 ) ) ;
#12 = DIRECTION ( 'NONE',  ( 0.0000000000000000000, 0.0000000000000000000, 1.000000000000000000 ) ) ;
#13 = ORGANIZATION ( 'UNSPECIFIED', 'UNSPECIFIED', '' ) ;
#14 = MANIFOLD_SOLID_BREP ( 'Corps-Déplacer/Copier1[1]', #172 ) ;
#15 = ADVANCED_FACE ( 'NONE', ( #94, #106 ), #230, .T. ) ;
#16 = ORIENTED_EDGE ( 'NONE', *, *, #233, .F. ) ;
#17 = LOCAL_TIME ( 13, 11, 22.00000000000000000, #59 ) ;
#18 = PERSON_AND_ORGANIZATION_ROLE ( 'creator' ) ;
#19 = ORIENTED_EDGE ( 'NONE', *, *, #51, .F. ) ;
#20 = DIRECTION ( 'NONE',  ( -4.275831445896958607E-31, -1.000000000000000000, -1.224646799147353207E-16 ) ) ;
#21 = DIRECTION ( 'NONE',  ( 0.0000000000000000000, -1.000000000000000000, 0.0000000000000000000 ) ) ;
#22 = ORIENTED_EDGE ( 'NONE', *, *, #51, .T. ) ;
#23 = DIRECTION ( 'NONE',  ( 3.209883240645393672E-31, 1.000000000000000000, 9.035018104045871927E-17 ) ) ;
#24 = LOCAL_TIME ( 13, 11, 22.00000000000000000, #188 ) ;
#25 = VERTEX_POINT ( 'NONE', #28 ) ;
#26 = APPROVAL ( #179, 'UNSPECIFIED' ) ;
#27 = CARTESIAN_POINT ( 'NONE',  ( 3.749918126639122192E-14, -0.7500000000000000000, 10.74019237886466627 ) ) ;
#28 = CARTESIAN_POINT ( 'NONE',  ( 3.612429800294230373E-14, 0.5999999999999987566, 10.34641016151377357 ) ) ;
#29 = ADVANCED_FACE ( 'NONE', ( #157 ), #199, .F. ) ;
#30 = AXIS2_PLACEMENT_3D ( 'NONE', #7, #80, #131 ) ;
#31 = EDGE_LOOP ( 'NONE', ( #1 ) ) ;
#32 = CC_DESIGN_PERSON_AND_ORGANIZATION_ASSIGNMENT ( #219, #57, ( #114 ) ) ;
#33 = EDGE_LOOP ( 'NONE', ( #72 ) ) ;
#34 = DIRECTION ( 'NONE',  ( -3.491481338843133355E-15, 1.224646799147353207E-16, -1.000000000000000000 ) ) ;
#35 = APPROVAL_STATUS ( 'not_yet_approved' ) ;
#36 = FACE_OUTER_BOUND ( 'NONE', #31, .T. ) ;
#37 = PLANE ( 'NONE',  #167 ) ;
#38 = DIRECTION ( 'NONE',  ( -3.491481338843133355E-15, 1.224646799147353207E-16, -1.000000000000000000 ) ) ;
#39 = CARTESIAN_POINT ( 'NONE',  ( 1.047444401652940007E-13, -3.673940397442059178E-15, 30.00000000000000000 ) ) ;
#40 = AXIS2_PLACEMENT_3D ( 'NONE', #63, #207, #232 ) ;
#41 = FACE_OUTER_BOUND ( 'NONE', #138, .T. ) ;
#42 = DIRECTION ( 'NONE',  ( 4.275831445896959482E-31, 1.000000000000000000, 1.224646799147353207E-16 ) ) ;
#43 = AXIS2_PLACEMENT_3D ( 'NONE', #39, #109, #53 ) ;
#44 = CARTESIAN_POINT ( 'NONE',  ( 1.209484614510976684E-15, -4.242300954899605596E-17, 0.3464101615137736845 ) ) ;
#45 = CALENDAR_DATE ( 2021, 10, 11 ) ;
#46 = FACE_OUTER_BOUND ( 'NONE', #145, .T. ) ;
#47 = DIRECTION ( 'NONE',  ( 1.000000000000000000, 0.0000000000000000000, 0.0000000000000000000 ) ) ;
#48 = ADVANCED_BREP_SHAPE_REPRESENTATION ( '955396', ( #14, #84, #108 ), #65 ) ;
#49 = EDGE_CURVE ( 'NONE', #191, #191, #153, .T. ) ;
#50 = AXIS2_PLACEMENT_3D ( 'NONE', #243, #34, #126 ) ;
#51 = EDGE_CURVE ( 'NONE', #95, #95, #139, .T. ) ;
#52 = AXIS2_PLACEMENT_3D ( 'NONE', #238, #113, #42 ) ;
#53 = DIRECTION ( 'NONE',  ( 0.0000000000000000000, 1.000000000000000000, 0.0000000000000000000 ) ) ;
#54 = EDGE_LOOP ( 'NONE', ( #215 ) ) ;
#55 = APPROVAL_ROLE ( '' ) ;
#56 = DIRECTION ( 'NONE',  ( -3.491481338843133355E-15, 1.224646799147353207E-16, -1.000000000000000000 ) ) ;
#57 = PERSON_AND_ORGANIZATION_ROLE ( 'creator' ) ;
#58 = FACE_OUTER_BOUND ( 'NONE', #54, .T. ) ;
#59 = COORDINATED_UNIVERSAL_TIME_OFFSET ( 1, 0, .AHEAD. ) ;
#60 = UNCERTAINTY_MEASURE_WITH_UNIT (LENGTH_MEASURE( 1.000000000000000082E-05 ), #79, 'distance_accuracy_value', 'NONE');
#61 = CYLINDRICAL_SURFACE ( 'NONE', #210, 0.5999999999999999778 ) ;
#62 = DATE_TIME_ROLE ( 'creation_date' ) ;
#63 = CARTESIAN_POINT ( 'NONE',  ( 3.612429800294230373E-14, 4.499279347985554349E-33, 10.34641016151377357 ) ) ;
#64 = AXIS2_PLACEMENT_3D ( 'NONE', #226, #161, #3 ) ;
#65 =( GEOMETRIC_REPRESENTATION_CONTEXT ( 3 ) GLOBAL_UNCERTAINTY_ASSIGNED_CONTEXT ( ( #60 ) ) GLOBAL_UNIT_ASSIGNED_CONTEXT ( ( #79, #135, #77 ) ) REPRESENTATION_CONTEXT ( 'NONE', 'WORKASPACE' ) );
#66 = ORIENTED_EDGE ( 'NONE', *, *, #182, .T. ) ;
#67 = PRODUCT_DEFINITION ( 'UNKNOWN', '', #114, #228 ) ;
#68 = AXIS2_PLACEMENT_3D ( 'NONE', #218, #128, #103 ) ;
#69 = EDGE_LOOP ( 'NONE', ( #66 ) ) ;
#70 = ORIENTED_EDGE ( 'NONE', *, *, #141, .T. ) ;
#71 = CC_DESIGN_DATE_AND_TIME_ASSIGNMENT ( #144, #62, ( #67 ) ) ;
#72 = ORIENTED_EDGE ( 'NONE', *, *, #141, .F. ) ;
#73 = COORDINATED_UNIVERSAL_TIME_OFFSET ( 1, 0, .AHEAD. ) ;
#74 = FACE_OUTER_BOUND ( 'NONE', #195, .T. ) ;
#75 = ADVANCED_FACE ( 'NONE', ( #36 ), #37, .F. ) ;
#76 = DIRECTION ( 'NONE',  ( 4.275831445896958607E-31, 1.000000000000000000, 1.224646799147353207E-16 ) ) ;
#77 =( NAMED_UNIT ( * ) SI_UNIT ( $, .STERADIAN. ) SOLID_ANGLE_UNIT ( ) );
#78 = CARTESIAN_POINT ( 'NONE',  ( 0.0000000000000000000, 0.0000000000000000000, 0.0000000000000000000 ) ) ;
#79 =( LENGTH_UNIT ( ) NAMED_UNIT ( * ) SI_UNIT ( .MILLI., .METRE. ) );
#80 = DIRECTION ( 'NONE',  ( -3.491481338843133355E-15, 1.224646799147353207E-16, -1.000000000000000000 ) ) ;
#81 = DIRECTION ( 'NONE',  ( 0.0000000000000000000, -1.000000000000000000, 0.0000000000000000000 ) ) ;
#82 = TOROIDAL_SURFACE ( 'NONE', #30, 1.100000000000000311, 0.5000000000000002220 ) ;
#83 = ORIENTED_EDGE ( 'NONE', *, *, #90, .F. ) ;
#84 = MANIFOLD_SOLID_BREP ( 'Corps-Déplacer/Copier1[2]', #136 ) ;
#85 = EDGE_LOOP ( 'NONE', ( #83 ) ) ;
#86 = APPROVAL_ROLE ( '' ) ;
#87 = COORDINATED_UNIVERSAL_TIME_OFFSET ( 1, 0, .AHEAD. ) ;
#88 = DIRECTION ( 'NONE',  ( 3.491481338843133355E-15, -1.247135059052984700E-16, 1.000000000000000000 ) ) ;
#89 = APPROVAL_STATUS ( 'not_yet_approved' ) ;
#90 = EDGE_CURVE ( 'NONE', #169, #169, #154, .T. ) ;
#91 = CONICAL_SURFACE ( 'NONE', #68, 0.8499999999999988676, 0.5235987755982979275 ) ;
#92 = CC_DESIGN_APPROVAL ( #213, ( #236 ) ) ;
#93 = DIRECTION ( 'NONE',  ( 3.491481338843133355E-15, -1.224646799147353207E-16, 1.000000000000000000 ) ) ;
#94 = FACE_OUTER_BOUND ( 'NONE', #241, .T. ) ;
#95 = VERTEX_POINT ( 'NONE', #118 ) ;
#96 = CC_DESIGN_PERSON_AND_ORGANIZATION_ASSIGNMENT ( #217, #127, ( #114 ) ) ;
#97 = APPROVAL_DATE_TIME ( #212, #213 ) ;
#98 = CC_DESIGN_APPROVAL ( #117, ( #67 ) ) ;
#99 = VERTEX_POINT ( 'NONE', #166 ) ;
#100 = CONICAL_SURFACE ( 'NONE', #142, 1732.050807568885830, 1.047197551196599852 ) ;
#101 = AXIS2_PLACEMENT_3D ( 'NONE', #5, #220, #159 ) ;
#102 = ORIENTED_EDGE ( 'NONE', *, *, #182, .F. ) ;
#103 = DIRECTION ( 'NONE',  ( 0.0000000000000000000, -1.000000000000000000, 0.0000000000000000000 ) ) ;
#104 = APPROVAL_ROLE ( '' ) ;
#105 = CIRCLE ( 'NONE', #43, 0.6000000000000000888 ) ;
#106 = FACE_BOUND ( 'NONE', #69, .T. ) ;
#107 = SECURITY_CLASSIFICATION_LEVEL ( 'unclassified' ) ;
#108 = AXIS2_PLACEMENT_3D ( 'NONE', #78, #12, #47 ) ;
#109 = DIRECTION ( 'NONE',  ( -3.491481338843133355E-15, 1.224646799147353207E-16, -1.000000000000000000 ) ) ;
#110 = DIRECTION ( 'NONE',  ( -4.554490559825208066E-31, -1.000000000000000000, -1.281975124255703048E-16 ) ) ;
#111 = ADVANCED_FACE ( 'NONE', ( #74, #130 ), #61, .T. ) ;
#112 = CARTESIAN_POINT ( 'NONE',  ( 1.042207179644675275E-13, 0.7499999999999962252, 29.84999999999999787 ) ) ;
#113 = DIRECTION ( 'NONE',  ( -3.491481338843133355E-15, 1.224646799147353207E-16, -1.000000000000000000 ) ) ;
#114 = PRODUCT_DEFINITION_FORMATION_WITH_SPECIFIED_SOURCE ( 'ANY', '', #235, .NOT_KNOWN. ) ;
#115 = DIRECTION ( 'NONE',  ( -3.491481338843133355E-15, 1.247135059052984700E-16, -1.000000000000000000 ) ) ;
#116 = SHAPE_DEFINITION_REPRESENTATION ( #132, #48 ) ;
#117 = APPROVAL ( #89, 'UNSPECIFIED' ) ;
#118 = CARTESIAN_POINT ( 'NONE',  ( 3.699716833765309022E-14, -0.6669872981077800134, 10.59641016151377180 ) ) ;
#119 = AXIS2_PLACEMENT_3D ( 'NONE', #175, #56, #76 ) ;
#120 = ADVANCED_FACE ( 'NONE', ( #225, #58 ), #91, .T. ) ;
#121 = CARTESIAN_POINT ( 'NONE',  ( 0.0000000000000000000, 0.0000000000000000000, 0.0000000000000000000 ) ) ;
#122 = PERSON_AND_ORGANIZATION ( #133, #13 ) ;
#123 = CARTESIAN_POINT ( 'NONE',  ( 3.612429800294230373E-14, 4.499279347985554349E-33, 10.34641016151377357 ) ) ;
#124 = APPROVAL_DATE_TIME ( #181, #117 ) ;
#125 = CC_DESIGN_APPROVAL ( #26, ( #114 ) ) ;
#126 = DIRECTION ( 'NONE',  ( 0.0000000000000000000, 1.000000000000000000, 0.0000000000000000000 ) ) ;
#127 = PERSON_AND_ORGANIZATION_ROLE ( 'design_supplier' ) ;
#128 = DIRECTION ( 'NONE',  ( 3.491481338843133355E-15, -1.247135059052984700E-16, 1.000000000000000000 ) ) ;
#129 = CALENDAR_DATE ( 2021, 10, 11 ) ;
#130 = FACE_OUTER_BOUND ( 'NONE', #147, .T. ) ;
#131 = DIRECTION ( 'NONE',  ( 4.275831445896958607E-31, 1.000000000000000000, 1.224646799147353207E-16 ) ) ;
#132 = PRODUCT_DEFINITION_SHAPE ( 'NONE', 'NONE',  #67 ) ;
#133 = PERSON ( 'UNSPECIFIED', 'UNSPECIFIED', 'UNSPECIFIED', ('UNSPECIFIED'), ('UNSPECIFIED'), ('UNSPECIFIED') ) ;
#134 = DIRECTION ( 'NONE',  ( 3.491481338843133355E-15, -1.224646799147353207E-16, 1.000000000000000000 ) ) ;
#135 =( NAMED_UNIT ( * ) PLANE_ANGLE_UNIT ( ) SI_UNIT ( $, .RADIAN. ) );
#136 = CLOSED_SHELL ( 'NONE', ( #209, #111, #192 ) ) ;
#137 = FACE_OUTER_BOUND ( 'NONE', #85, .T. ) ;
#138 = EDGE_LOOP ( 'NONE', ( #184 ) ) ;
#139 = CIRCLE ( 'NONE', #163, 0.6669872981077787921 ) ;
#140 = APPLICATION_CONTEXT ( 'configuration controlled 3d designs of mechanical parts and assemblies' ) ;
#141 = EDGE_CURVE ( 'NONE', #25, #25, #194, .T. ) ;
#142 = AXIS2_PLACEMENT_3D ( 'NONE', #10, #134, #110 ) ;
#143 = EDGE_LOOP ( 'NONE', ( #19 ) ) ;
#144 = DATE_AND_TIME ( #185, #171 ) ;
#145 = EDGE_LOOP ( 'NONE', ( #214 ) ) ;
#146 = COORDINATED_UNIVERSAL_TIME_OFFSET ( 1, 0, .AHEAD. ) ;
#147 = EDGE_LOOP ( 'NONE', ( #16 ) ) ;
#148 = APPROVAL_DATE_TIME ( #162, #26 ) ;
#149 = CIRCLE ( 'NONE', #223, 0.7499999999999986677 ) ;
#150 = DIRECTION ( 'NONE',  ( 4.275831445896958607E-31, 1.000000000000000000, 1.224646799147352961E-16 ) ) ;
#151 = EDGE_LOOP ( 'NONE', ( #177 ) ) ;
#152 = PRODUCT_RELATED_PRODUCT_CATEGORY ( 'detail', '', ( #235 ) ) ;
#153 = CIRCLE ( 'NONE', #50, 0.7499999999999998890 ) ;
#154 = CIRCLE ( 'NONE', #64, 0.6000000000000000888 ) ;
#155 = CC_DESIGN_SECURITY_CLASSIFICATION ( #236, ( #114 ) ) ;
#156 = DATE_AND_TIME ( #129, #17 ) ;
#157 = FACE_OUTER_BOUND ( 'NONE', #178, .T. ) ;
#158 = MECHANICAL_CONTEXT ( 'NONE', #140, 'mechanical' ) ;
#159 = DIRECTION ( 'NONE',  ( 0.0000000000000000000, 1.000000000000000000, 0.0000000000000000000 ) ) ;
#160 = PERSON_AND_ORGANIZATION ( #133, #13 ) ;
#161 = DIRECTION ( 'NONE',  ( -3.491481338843133355E-15, 1.224646799147353207E-16, -1.000000000000000000 ) ) ;
#162 = DATE_AND_TIME ( #205, #222 ) ;
#163 = AXIS2_PLACEMENT_3D ( 'NONE', #200, #88, #21 ) ;
#164 = DIRECTION ( 'NONE',  ( -3.491481338843133355E-15, 1.224646799147353207E-16, -1.000000000000000000 ) ) ;
#165 = APPLICATION_PROTOCOL_DEFINITION ( 'international standard', 'config_control_design', 1994, #231 ) ;
#166 = CARTESIAN_POINT ( 'NONE',  ( 1.047444401652940007E-13, 0.5999999999999963141, 30.00000000000000000 ) ) ;
#167 = AXIS2_PLACEMENT_3D ( 'NONE', #123, #93, #20 ) ;
#168 = APPROVAL_PERSON_ORGANIZATION ( #227, #117, #55 ) ;
#169 = VERTEX_POINT ( 'NONE', #186 ) ;
#170 = PLANE ( 'NONE',  #40 ) ;
#171 = LOCAL_TIME ( 13, 11, 22.00000000000000000, #87 ) ;
#172 = CLOSED_SHELL ( 'NONE', ( #240, #15, #29, #120, #75, #216 ) ) ;
#173 = APPROVAL_PERSON_ORGANIZATION ( #197, #213, #104 ) ;
#174 = ORIENTED_EDGE ( 'NONE', *, *, #49, .F. ) ;
#175 = CARTESIAN_POINT ( 'NONE',  ( 1.047444401652940007E-13, 4.499279347985518085E-33, 30.00000000000000000 ) ) ;
#176 = CC_DESIGN_PERSON_AND_ORGANIZATION_ASSIGNMENT ( #201, #18, ( #67 ) ) ;
#177 = ORIENTED_EDGE ( 'NONE', *, *, #49, .T. ) ;
#178 = EDGE_LOOP ( 'NONE', ( #102 ) ) ;
#179 = APPROVAL_STATUS ( 'not_yet_approved' ) ;
#180 = EDGE_LOOP ( 'NONE', ( #22 ) ) ;
#181 = DATE_AND_TIME ( #203, #193 ) ;
#182 = EDGE_CURVE ( 'NONE', #99, #99, #105, .T. ) ;
#183 = CIRCLE ( 'NONE', #8, 0.5999999999999998668 ) ;
#184 = ORIENTED_EDGE ( 'NONE', *, *, #233, .T. ) ;
#185 = CALENDAR_DATE ( 2021, 10, 11 ) ;
#186 = CARTESIAN_POINT ( 'NONE',  ( 3.612429800294230373E-14, 0.5999999999999987566, 10.34641016151377357 ) ) ;
#187 = FACE_OUTER_BOUND ( 'NONE', #151, .T. ) ;
#188 = COORDINATED_UNIVERSAL_TIME_OFFSET ( 1, 0, .AHEAD. ) ;
#189 = CARTESIAN_POINT ( 'NONE',  ( 3.749918126639122192E-14, -1.339447045665580131E-15, 10.74019237886466627 ) ) ;
#190 = CYLINDRICAL_SURFACE ( 'NONE', #52, 0.7499999999999986677 ) ;
#191 = VERTEX_POINT ( 'NONE', #112 ) ;
#192 = ADVANCED_FACE ( 'NONE', ( #196 ), #170, .T. ) ;
#193 = LOCAL_TIME ( 13, 11, 22.00000000000000000, #146 ) ;
#194 = CIRCLE ( 'NONE', #206, 0.6000000000000000888 ) ;
#195 = EDGE_LOOP ( 'NONE', ( #70 ) ) ;
#196 = FACE_OUTER_BOUND ( 'NONE', #33, .T. ) ;
#197 = PERSON_AND_ORGANIZATION ( #133, #13 ) ;
#198 = EDGE_CURVE ( 'NONE', #6, #6, #149, .T. ) ;
#199 = PLANE ( 'NONE',  #119 ) ;
#200 = CARTESIAN_POINT ( 'NONE',  ( 3.699716833765309022E-14, -1.321515461252912527E-15, 10.59641016151377180 ) ) ;
#201 = PERSON_AND_ORGANIZATION ( #133, #13 ) ;
#202 = CARTESIAN_POINT ( 'NONE',  ( 3.612429800294230373E-14, -1.267069808696349109E-15, 10.34641016151377357 ) ) ;
#203 = CALENDAR_DATE ( 2021, 10, 11 ) ;
#204 = DIRECTION ( 'NONE',  ( 0.0000000000000000000, 1.000000000000000000, 0.0000000000000000000 ) ) ;
#205 = CALENDAR_DATE ( 2021, 10, 11 ) ;
#206 = AXIS2_PLACEMENT_3D ( 'NONE', #202, #38, #204 ) ;
#207 = DIRECTION ( 'NONE',  ( 3.491481338843133355E-15, -1.224646799147353207E-16, 1.000000000000000000 ) ) ;
#208 = FACE_OUTER_BOUND ( 'NONE', #143, .T. ) ;
#209 = ADVANCED_FACE ( 'NONE', ( #41 ), #100, .T. ) ;
#210 = AXIS2_PLACEMENT_3D ( 'NONE', #121, #164, #150 ) ;
#211 = DIRECTION ( 'NONE',  ( -3.491481338843133355E-15, 1.224646799147353207E-16, -1.000000000000000000 ) ) ;
#212 = DATE_AND_TIME ( #45, #24 ) ;
#213 = APPROVAL ( #35, 'UNSPECIFIED' ) ;
#214 = ORIENTED_EDGE ( 'NONE', *, *, #198, .F. ) ;
#215 = ORIENTED_EDGE ( 'NONE', *, *, #198, .T. ) ;
#216 = ADVANCED_FACE ( 'NONE', ( #137, #208 ), #82, .F. ) ;
#217 = PERSON_AND_ORGANIZATION ( #133, #13 ) ;
#218 = CARTESIAN_POINT ( 'NONE',  ( 3.810392357364671016E-14, -1.361048058527382124E-15, 10.91339745962155483 ) ) ;
#219 = PERSON_AND_ORGANIZATION ( #133, #13 ) ;
#220 = DIRECTION ( 'NONE',  ( -3.491481338843133355E-15, 1.224646799147353207E-16, -1.000000000000000000 ) ) ;
#221 = PERSON_AND_ORGANIZATION_ROLE ( 'design_owner' ) ;
#222 = LOCAL_TIME ( 13, 11, 22.00000000000000000, #73 ) ;
#223 = AXIS2_PLACEMENT_3D ( 'NONE', #189, #115, #81 ) ;
#224 = CC_DESIGN_PERSON_AND_ORGANIZATION_ASSIGNMENT ( #122, #4, ( #236 ) ) ;
#225 = FACE_BOUND ( 'NONE', #180, .T. ) ;
#226 = CARTESIAN_POINT ( 'NONE',  ( 3.612429800294230373E-14, -1.267069808696349109E-15, 10.34641016151377357 ) ) ;
#227 = PERSON_AND_ORGANIZATION ( #133, #13 ) ;
#228 = DESIGN_CONTEXT ( 'detailed design', #231, 'design' ) ;
#229 = APPLICATION_PROTOCOL_DEFINITION ( 'international standard', 'config_control_design', 1994, #140 ) ;
#230 = CONICAL_SURFACE ( 'NONE', #101, 0.6000000000000000888, 0.7853981633974450594 ) ;
#231 = APPLICATION_CONTEXT ( 'configuration controlled 3d designs of mechanical parts and assemblies' ) ;
#232 = DIRECTION ( 'NONE',  ( -4.275831445896958607E-31, -1.000000000000000000, -1.224646799147353207E-16 ) ) ;
#233 = EDGE_CURVE ( 'NONE', #234, #234, #183, .T. ) ;
#234 = VERTEX_POINT ( 'NONE', #9 ) ;
#235 = PRODUCT ( '955396', '955396', '', ( #158 ) ) ;
#236 = SECURITY_CLASSIFICATION ( '', '', #107 ) ;
#237 = CC_DESIGN_DATE_AND_TIME_ASSIGNMENT ( #156, #242, ( #236 ) ) ;
#238 = CARTESIAN_POINT ( 'NONE',  ( 0.0000000000000000000, 0.0000000000000000000, 0.0000000000000000000 ) ) ;
#239 = APPROVAL_PERSON_ORGANIZATION ( #160, #26, #86 ) ;
#240 = ADVANCED_FACE ( 'NONE', ( #187, #46 ), #190, .T. ) ;
#241 = EDGE_LOOP ( 'NONE', ( #174 ) ) ;
#242 = DATE_TIME_ROLE ( 'classification_date' ) ;
#243 = CARTESIAN_POINT ( 'NONE',  ( 1.042207179644675275E-13, -3.655570695454848748E-15, 29.84999999999999787 ) ) ;
ENDSEC;
END-ISO-10303-21;
