ISO-10303-21;
HEADER;
FILE_DESCRIPTION (( 'STEP AP203' ),
    '1' );
FILE_NAME ('955395.step',
    '2021-11-10T12:11:21',
    ( '' ),
    ( '' ),
    'SwSTEP 2.0',
    'SolidWorks 2019',
    '' );
FILE_SCHEMA (( 'CONFIG_CONTROL_DESIGN' ));
ENDSEC;

DATA;
#1 = APPLICATION_CONTEXT ( 'configuration controlled 3d designs of mechanical parts and assemblies' ) ;
#2 = DATE_AND_TIME ( #116, #160 ) ;
#3 = DATE_TIME_ROLE ( 'classification_date' ) ;
#4 = CALENDAR_DATE ( 2021, 10, 11 ) ;
#5 = EDGE_CURVE ( 'NONE', #132, #132, #35, .T. ) ;
#6 = ORIENTED_EDGE ( 'NONE', *, *, #148, .T. ) ;
#7 = CONICAL_SURFACE ( 'NONE', #42, 0.6000000000000000888, 0.7853981633974450594 ) ;
#8 = AXIS2_PLACEMENT_3D ( 'NONE', #144, #126, #71 ) ;
#9 = CARTESIAN_POINT ( 'NONE',  ( 3.258242147182789126E-14, -1.142837503383739084E-15, 9.331976404784033008 ) ) ;
#10 = EDGE_LOOP ( 'NONE', ( #67 ) ) ;
#11 = DIRECTION ( 'NONE',  ( 0.0000000000000000000, -1.000000000000000000, 0.0000000000000000000 ) ) ;
#12 = CONICAL_SURFACE ( 'NONE', #22, 1732.050807568886512, 1.047197551196600074 ) ;
#13 = DIRECTION ( 'NONE',  ( 0.0000000000000000000, 1.000000000000000000, 0.0000000000000000000 ) ) ;
#14 = CARTESIAN_POINT ( 'NONE',  ( 1.042207179644675275E-13, 0.7499999999999962252, 29.84999999999999787 ) ) ;
#15 = DIRECTION ( 'NONE',  ( 4.275831445896959482E-31, 1.000000000000000000, 1.224646799147353207E-16 ) ) ;
#16 = AXIS2_PLACEMENT_3D ( 'NONE', #240, #63, #231 ) ;
#17 = FACE_OUTER_BOUND ( 'NONE', #159, .T. ) ;
#18 = VERTEX_POINT ( 'NONE', #37 ) ;
#19 = EDGE_CURVE ( 'NONE', #203, #203, #199, .T. ) ;
#20 = CARTESIAN_POINT ( 'NONE',  ( 3.345529180653865882E-14, -1.195001870942463711E-15, 9.581976404784029455 ) ) ;
#21 = PERSON_AND_ORGANIZATION ( #183, #154 ) ;
#22 = AXIS2_PLACEMENT_3D ( 'NONE', #164, #39, #55 ) ;
#23 = DATE_AND_TIME ( #150, #131 ) ;
#24 = SHAPE_DEFINITION_REPRESENTATION ( #189, #86 ) ;
#25 = APPROVAL_ROLE ( '' ) ;
#26 = ORIENTED_EDGE ( 'NONE', *, *, #163, .T. ) ;
#27 = APPLICATION_PROTOCOL_DEFINITION ( 'international standard', 'config_control_design', 1994, #139 ) ;
#28 = CARTESIAN_POINT ( 'NONE',  ( 3.471323261934616660E-14, -1.239934721432384003E-15, 9.942264973081037738 ) ) ;
#29 = CARTESIAN_POINT ( 'NONE',  ( 1.159089422239685537E-15, -4.065538415112121028E-17, 0.3319764047840330079 ) ) ;
#30 = AXIS2_PLACEMENT_3D ( 'NONE', #180, #137, #13 ) ;
#31 = DIRECTION ( 'NONE',  ( -3.491481338843133355E-15, 1.224646799147353207E-16, -1.000000000000000000 ) ) ;
#32 = APPROVAL ( #98, 'UNSPECIFIED' ) ;
#33 = ORIENTED_EDGE ( 'NONE', *, *, #106, .F. ) ;
#34 = ORIENTED_EDGE ( 'NONE', *, *, #163, .F. ) ;
#35 = CIRCLE ( 'NONE', #30, 0.5750000000000000666 ) ;
#36 = CC_DESIGN_PERSON_AND_ORGANIZATION_ASSIGNMENT ( #84, #102, ( #179 ) ) ;
#37 = CARTESIAN_POINT ( 'NONE',  ( 1.159089422239685734E-15, 0.5749999999999998446, 0.3319764047840330634 ) ) ;
#38 = AXIS2_PLACEMENT_3D ( 'NONE', #28, #50, #105 ) ;
#39 = DIRECTION ( 'NONE',  ( 3.491481338843133355E-15, -1.224646799147353207E-16, 1.000000000000000000 ) ) ;
#40 = CC_DESIGN_DATE_AND_TIME_ASSIGNMENT ( #209, #3, ( #211 ) ) ;
#41 = CARTESIAN_POINT ( 'NONE',  ( 3.258242147182789126E-14, -1.084202172485504434E-15, 9.331976404784033008 ) ) ;
#42 = AXIS2_PLACEMENT_3D ( 'NONE', #117, #142, #123 ) ;
#43 = APPROVAL_PERSON_ORGANIZATION ( #21, #100, #25 ) ;
#44 = EDGE_LOOP ( 'NONE', ( #33 ) ) ;
#45 = PERSON_AND_ORGANIZATION ( #183, #154 ) ;
#46 = COORDINATED_UNIVERSAL_TIME_OFFSET ( 1, 0, .AHEAD. ) ;
#47 = EDGE_LOOP ( 'NONE', ( #151 ) ) ;
#48 = COORDINATED_UNIVERSAL_TIME_OFFSET ( 1, 0, .AHEAD. ) ;
#49 = EDGE_LOOP ( 'NONE', ( #226 ) ) ;
#50 = DIRECTION ( 'NONE',  ( 3.491481338843133355E-15, -1.247135059052984700E-16, 1.000000000000000000 ) ) ;
#51 = DIRECTION ( 'NONE',  ( 4.275831445896958607E-31, 1.000000000000000000, 1.224646799147353207E-16 ) ) ;
#52 = ORIENTED_EDGE ( 'NONE', *, *, #19, .F. ) ;
#53 = ADVANCED_FACE ( 'NONE', ( #70 ), #85, .F. ) ;
#54 = AXIS2_PLACEMENT_3D ( 'NONE', #29, #69, #176 ) ;
#55 = DIRECTION ( 'NONE',  ( -4.554490559825206315E-31, -1.000000000000000000, -1.281975124255702555E-16 ) ) ;
#56 = VERTEX_POINT ( 'NONE', #76 ) ;
#57 = CC_DESIGN_PERSON_AND_ORGANIZATION_ASSIGNMENT ( #188, #227, ( #171 ) ) ;
#58 = DIRECTION ( 'NONE',  ( -3.491481338843133355E-15, 1.224646799147353207E-16, -1.000000000000000000 ) ) ;
#59 = CC_DESIGN_SECURITY_CLASSIFICATION ( #211, ( #171 ) ) ;
#60 = DESIGN_CONTEXT ( 'detailed design', #139, 'design' ) ;
#61 =( NAMED_UNIT ( * ) PLANE_ANGLE_UNIT ( ) SI_UNIT ( $, .RADIAN. ) );
#62 = EDGE_LOOP ( 'NONE', ( #34 ) ) ;
#63 = DIRECTION ( 'NONE',  ( 0.0000000000000000000, 0.0000000000000000000, 1.000000000000000000 ) ) ;
#64 = AXIS2_PLACEMENT_3D ( 'NONE', #20, #111, #94 ) ;
#65 = PERSON_AND_ORGANIZATION_ROLE ( 'classification_officer' ) ;
#66 = COORDINATED_UNIVERSAL_TIME_OFFSET ( 1, 0, .AHEAD. ) ;
#67 = ORIENTED_EDGE ( 'NONE', *, *, #233, .F. ) ;
#68 = CARTESIAN_POINT ( 'NONE',  ( 3.258242147182789126E-14, 4.311809375152823517E-33, 9.331976404784033008 ) ) ;
#69 = DIRECTION ( 'NONE',  ( -3.491481338843133355E-15, 1.224646799147353207E-16, -1.000000000000000000 ) ) ;
#70 = FACE_OUTER_BOUND ( 'NONE', #62, .T. ) ;
#71 = DIRECTION ( 'NONE',  ( -4.275831445896958607E-31, -1.000000000000000000, -1.224646799147353207E-16 ) ) ;
#72 = APPLICATION_PROTOCOL_DEFINITION ( 'international standard', 'config_control_design', 1994, #1 ) ;
#73 = CONICAL_SURFACE ( 'NONE', #38, 0.8499999999999987566, 0.5235987755982942637 ) ;
#74 = PRODUCT_DEFINITION ( 'UNKNOWN', '', #171, #60 ) ;
#75 = FACE_OUTER_BOUND ( 'NONE', #10, .T. ) ;
#76 = CARTESIAN_POINT ( 'NONE',  ( 3.345529180653865882E-14, -0.6419872981077803242, 9.581976404784029455 ) ) ;
#77 = TOROIDAL_SURFACE ( 'NONE', #186, 1.074999999999999956, 0.4999999999999997780 ) ;
#78 = APPROVAL_STATUS ( 'not_yet_approved' ) ;
#79 = ADVANCED_FACE ( 'NONE', ( #162 ), #239, .F. ) ;
#80 = DATE_TIME_ROLE ( 'creation_date' ) ;
#81 = APPROVAL_PERSON_ORGANIZATION ( #99, #32, #134 ) ;
#82 = APPROVAL_ROLE ( '' ) ;
#83 = EDGE_CURVE ( 'NONE', #18, #18, #210, .T. ) ;
#84 = PERSON_AND_ORGANIZATION ( #183, #154 ) ;
#85 = PLANE ( 'NONE',  #140 ) ;
#86 = ADVANCED_BREP_SHAPE_REPRESENTATION ( '955395', ( #114, #197, #16 ), #228 ) ;
#87 = DIRECTION ( 'NONE',  ( -3.491481338843133355E-15, 1.224646799147353207E-16, -1.000000000000000000 ) ) ;
#88 = ORIENTED_EDGE ( 'NONE', *, *, #19, .T. ) ;
#89 = DIRECTION ( 'NONE',  ( 3.491481338843133355E-15, -1.224646799147353207E-16, 1.000000000000000000 ) ) ;
#90 = AXIS2_PLACEMENT_3D ( 'NONE', #174, #31, #108 ) ;
#91 = CC_DESIGN_PERSON_AND_ORGANIZATION_ASSIGNMENT ( #232, #65, ( #211 ) ) ;
#92 = CARTESIAN_POINT ( 'NONE',  ( 3.410849031209067204E-14, -1.218333708570582010E-15, 9.769059892324147398 ) ) ;
#93 = VERTEX_POINT ( 'NONE', #14 ) ;
#94 = DIRECTION ( 'NONE',  ( 0.0000000000000000000, -1.000000000000000000, 0.0000000000000000000 ) ) ;
#95 = VERTEX_POINT ( 'NONE', #168 ) ;
#96 =( NAMED_UNIT ( * ) SI_UNIT ( $, .STERADIAN. ) SOLID_ANGLE_UNIT ( ) );
#97 = CC_DESIGN_APPROVAL ( #100, ( #211 ) ) ;
#98 = APPROVAL_STATUS ( 'not_yet_approved' ) ;
#99 = PERSON_AND_ORGANIZATION ( #183, #154 ) ;
#100 = APPROVAL ( #78, 'UNSPECIFIED' ) ;
#101 = CC_DESIGN_APPROVAL ( #230, ( #171 ) ) ;
#102 = PERSON_AND_ORGANIZATION_ROLE ( 'design_owner' ) ;
#103 = ORIENTED_EDGE ( 'NONE', *, *, #148, .F. ) ;
#104 = APPROVAL_DATE_TIME ( #170, #230 ) ;
#105 = DIRECTION ( 'NONE',  ( 0.0000000000000000000, -1.000000000000000000, 0.0000000000000000000 ) ) ;
#106 = EDGE_CURVE ( 'NONE', #220, #220, #165, .T. ) ;
#107 = EDGE_LOOP ( 'NONE', ( #109 ) ) ;
#108 = DIRECTION ( 'NONE',  ( 0.0000000000000000000, 1.000000000000000000, 0.0000000000000000000 ) ) ;
#109 = ORIENTED_EDGE ( 'NONE', *, *, #233, .T. ) ;
#110 = CARTESIAN_POINT ( 'NONE',  ( 0.0000000000000000000, 0.0000000000000000000, 0.0000000000000000000 ) ) ;
#111 = DIRECTION ( 'NONE',  ( 3.491481338843133355E-15, -1.247135059052984700E-16, 1.000000000000000000 ) ) ;
#112 = CALENDAR_DATE ( 2021, 10, 11 ) ;
#113 = APPROVAL_DATE_TIME ( #2, #100 ) ;
#114 = MANIFOLD_SOLID_BREP ( 'Corps-Déplacer/Copier1[1]', #236 ) ;
#115 = AXIS2_PLACEMENT_3D ( 'NONE', #120, #196, #216 ) ;
#116 = CALENDAR_DATE ( 2021, 10, 11 ) ;
#117 = CARTESIAN_POINT ( 'NONE',  ( 1.047444401652940007E-13, -3.673940397442059178E-15, 30.00000000000000000 ) ) ;
#118 = ADVANCED_FACE ( 'NONE', ( #217, #212 ), #7, .T. ) ;
#119 = ORIENTED_EDGE ( 'NONE', *, *, #5, .F. ) ;
#120 = CARTESIAN_POINT ( 'NONE',  ( 1.042207179644675275E-13, -3.655570695454848748E-15, 29.84999999999999787 ) ) ;
#121 = FACE_OUTER_BOUND ( 'NONE', #213, .T. ) ;
#122 = PRODUCT_RELATED_PRODUCT_CATEGORY ( 'detail', '', ( #179 ) ) ;
#123 = DIRECTION ( 'NONE',  ( 0.0000000000000000000, 1.000000000000000000, 0.0000000000000000000 ) ) ;
#124 = DIRECTION ( 'NONE',  ( 4.275831445896959482E-31, 1.000000000000000000, 1.224646799147353207E-16 ) ) ;
#125 = LOCAL_TIME ( 13, 11, 21.00000000000000000, #66 ) ;
#126 = DIRECTION ( 'NONE',  ( 3.491481338843133355E-15, -1.224646799147353207E-16, 1.000000000000000000 ) ) ;
#127 = ADVANCED_FACE ( 'NONE', ( #234, #138 ), #73, .T. ) ;
#128 = DIRECTION ( 'NONE',  ( -3.491481338843133355E-15, 1.224646799147353207E-16, -1.000000000000000000 ) ) ;
#129 = FACE_OUTER_BOUND ( 'NONE', #143, .T. ) ;
#130 = AXIS2_PLACEMENT_3D ( 'NONE', #92, #177, #11 ) ;
#131 = LOCAL_TIME ( 13, 11, 21.00000000000000000, #46 ) ;
#132 = VERTEX_POINT ( 'NONE', #187 ) ;
#133 = APPROVAL_STATUS ( 'not_yet_approved' ) ;
#134 = APPROVAL_ROLE ( '' ) ;
#135 = CLOSED_SHELL ( 'NONE', ( #218, #204, #190 ) ) ;
#136 = EDGE_LOOP ( 'NONE', ( #26 ) ) ;
#137 = DIRECTION ( 'NONE',  ( -3.491481338843133355E-15, 1.224646799147353207E-16, -1.000000000000000000 ) ) ;
#138 = FACE_OUTER_BOUND ( 'NONE', #192, .T. ) ;
#139 = APPLICATION_CONTEXT ( 'configuration controlled 3d designs of mechanical parts and assemblies' ) ;
#140 = AXIS2_PLACEMENT_3D ( 'NONE', #158, #157, #51 ) ;
#141 = LOCAL_TIME ( 13, 11, 21.00000000000000000, #169 ) ;
#142 = DIRECTION ( 'NONE',  ( -3.491481338843133355E-15, 1.224646799147353207E-16, -1.000000000000000000 ) ) ;
#143 = EDGE_LOOP ( 'NONE', ( #52 ) ) ;
#144 = CARTESIAN_POINT ( 'NONE',  ( 3.258242147182789126E-14, 4.311809375152823517E-33, 9.331976404784033008 ) ) ;
#145 = CYLINDRICAL_SURFACE ( 'NONE', #229, 0.7499999999999986677 ) ;
#146 = APPROVAL_PERSON_ORGANIZATION ( #45, #230, #82 ) ;
#147 = UNCERTAINTY_MEASURE_WITH_UNIT (LENGTH_MEASURE( 1.000000000000000082E-05 ), #201, 'distance_accuracy_value', 'NONE');
#148 = EDGE_CURVE ( 'NONE', #93, #93, #175, .T. ) ;
#149 = LOCAL_TIME ( 13, 11, 21.00000000000000000, #191 ) ;
#150 = CALENDAR_DATE ( 2021, 10, 11 ) ;
#151 = ORIENTED_EDGE ( 'NONE', *, *, #83, .T. ) ;
#152 = PERSON_AND_ORGANIZATION_ROLE ( 'creator' ) ;
#153 = AXIS2_PLACEMENT_3D ( 'NONE', #9, #87, #238 ) ;
#154 = ORGANIZATION ( 'UNSPECIFIED', 'UNSPECIFIED', '' ) ;
#155 = MECHANICAL_CONTEXT ( 'NONE', #1, 'mechanical' ) ;
#156 = DATE_AND_TIME ( #4, #141 ) ;
#157 = DIRECTION ( 'NONE',  ( -3.491481338843133355E-15, 1.224646799147353207E-16, -1.000000000000000000 ) ) ;
#158 = CARTESIAN_POINT ( 'NONE',  ( 1.047444401652940007E-13, 4.499279347985518085E-33, 30.00000000000000000 ) ) ;
#159 = EDGE_LOOP ( 'NONE', ( #206 ) ) ;
#160 = LOCAL_TIME ( 13, 11, 21.00000000000000000, #48 ) ;
#161 = ORIENTED_EDGE ( 'NONE', *, *, #106, .T. ) ;
#162 = FACE_OUTER_BOUND ( 'NONE', #235, .T. ) ;
#163 = EDGE_CURVE ( 'NONE', #95, #95, #166, .T. ) ;
#164 = CARTESIAN_POINT ( 'NONE',  ( 3.491481338843133254E-12, -1.224646799147353249E-13, 1000.000000000000000 ) ) ;
#165 = CIRCLE ( 'NONE', #153, 0.5750000000000000666 ) ;
#166 = CIRCLE ( 'NONE', #90, 0.6000000000000000888 ) ;
#167 = FACE_OUTER_BOUND ( 'NONE', #49, .T. ) ;
#168 = CARTESIAN_POINT ( 'NONE',  ( 1.047444401652940007E-13, 0.5999999999999963141, 30.00000000000000000 ) ) ;
#169 = COORDINATED_UNIVERSAL_TIME_OFFSET ( 1, 0, .AHEAD. ) ;
#170 = DATE_AND_TIME ( #193, #149 ) ;
#171 = PRODUCT_DEFINITION_FORMATION_WITH_SPECIFIED_SOURCE ( 'ANY', '', #179, .NOT_KNOWN. ) ;
#172 = PERSON_AND_ORGANIZATION ( #183, #154 ) ;
#173 = CC_DESIGN_DATE_AND_TIME_ASSIGNMENT ( #156, #80, ( #74 ) ) ;
#174 = CARTESIAN_POINT ( 'NONE',  ( 1.047444401652940007E-13, -3.673940397442059178E-15, 30.00000000000000000 ) ) ;
#175 = CIRCLE ( 'NONE', #115, 0.7499999999999998890 ) ;
#176 = DIRECTION ( 'NONE',  ( 3.349443381543019846E-31, 1.000000000000000000, 9.427844978134823898E-17 ) ) ;
#177 = DIRECTION ( 'NONE',  ( -3.491481338843133355E-15, 1.247135059052984700E-16, -1.000000000000000000 ) ) ;
#178 = EDGE_LOOP ( 'NONE', ( #103 ) ) ;
#179 = PRODUCT ( '955395', '955395', '', ( #155 ) ) ;
#180 = CARTESIAN_POINT ( 'NONE',  ( 3.258242147182789126E-14, -1.142837503383739084E-15, 9.331976404784033008 ) ) ;
#181 = CC_DESIGN_PERSON_AND_ORGANIZATION_ASSIGNMENT ( #172, #207, ( #171 ) ) ;
#182 = FACE_OUTER_BOUND ( 'NONE', #44, .T. ) ;
#183 = PERSON ( 'UNSPECIFIED', 'UNSPECIFIED', 'UNSPECIFIED', ('UNSPECIFIED'), ('UNSPECIFIED'), ('UNSPECIFIED') ) ;
#184 = CARTESIAN_POINT ( 'NONE',  ( 0.0000000000000000000, 0.0000000000000000000, 0.0000000000000000000 ) ) ;
#185 = CARTESIAN_POINT ( 'NONE',  ( 3.258242147182789126E-14, 0.5749999999999989564, 9.331976404784033008 ) ) ;
#186 = AXIS2_PLACEMENT_3D ( 'NONE', #41, #219, #202 ) ;
#187 = CARTESIAN_POINT ( 'NONE',  ( 3.258242147182789126E-14, 0.5749999999999989564, 9.331976404784033008 ) ) ;
#188 = PERSON_AND_ORGANIZATION ( #183, #154 ) ;
#189 = PRODUCT_DEFINITION_SHAPE ( 'NONE', 'NONE',  #74 ) ;
#190 = ADVANCED_FACE ( 'NONE', ( #121 ), #200, .T. ) ;
#191 = COORDINATED_UNIVERSAL_TIME_OFFSET ( 1, 0, .AHEAD. ) ;
#192 = EDGE_LOOP ( 'NONE', ( #88 ) ) ;
#193 = CALENDAR_DATE ( 2021, 10, 11 ) ;
#194 = DIRECTION ( 'NONE',  ( -4.275831445896958607E-31, -1.000000000000000000, -1.224646799147353207E-16 ) ) ;
#195 = AXIS2_PLACEMENT_3D ( 'NONE', #184, #128, #124 ) ;
#196 = DIRECTION ( 'NONE',  ( -3.491481338843133355E-15, 1.224646799147353207E-16, -1.000000000000000000 ) ) ;
#197 = MANIFOLD_SOLID_BREP ( 'Corps-Déplacer/Copier1[2]', #135 ) ;
#198 = EDGE_LOOP ( 'NONE', ( #6 ) ) ;
#199 = CIRCLE ( 'NONE', #130, 0.7499999999999986677 ) ;
#200 = PLANE ( 'NONE',  #8 ) ;
#201 =( LENGTH_UNIT ( ) NAMED_UNIT ( * ) SI_UNIT ( .MILLI., .METRE. ) );
#202 = DIRECTION ( 'NONE',  ( 4.275831445896958607E-31, 1.000000000000000000, 1.224646799147353207E-16 ) ) ;
#203 = VERTEX_POINT ( 'NONE', #223 ) ;
#204 = ADVANCED_FACE ( 'NONE', ( #17, #167 ), #242, .T. ) ;
#205 = APPROVAL_DATE_TIME ( #23, #32 ) ;
#206 = ORIENTED_EDGE ( 'NONE', *, *, #5, .T. ) ;
#207 = PERSON_AND_ORGANIZATION_ROLE ( 'creator' ) ;
#208 = PERSON_AND_ORGANIZATION ( #183, #154 ) ;
#209 = DATE_AND_TIME ( #112, #125 ) ;
#210 = CIRCLE ( 'NONE', #54, 0.5749999999999998446 ) ;
#211 = SECURITY_CLASSIFICATION ( '', '', #243 ) ;
#212 = FACE_BOUND ( 'NONE', #136, .T. ) ;
#213 = EDGE_LOOP ( 'NONE', ( #119 ) ) ;
#214 = ADVANCED_FACE ( 'NONE', ( #182, #75 ), #77, .F. ) ;
#215 = CC_DESIGN_APPROVAL ( #32, ( #74 ) ) ;
#216 = DIRECTION ( 'NONE',  ( 0.0000000000000000000, 1.000000000000000000, 0.0000000000000000000 ) ) ;
#217 = FACE_OUTER_BOUND ( 'NONE', #178, .T. ) ;
#218 = ADVANCED_FACE ( 'NONE', ( #241 ), #12, .T. ) ;
#219 = DIRECTION ( 'NONE',  ( -3.491481338843133355E-15, 1.224646799147353207E-16, -1.000000000000000000 ) ) ;
#220 = VERTEX_POINT ( 'NONE', #185 ) ;
#221 = FACE_OUTER_BOUND ( 'NONE', #198, .T. ) ;
#222 = AXIS2_PLACEMENT_3D ( 'NONE', #68, #89, #194 ) ;
#223 = CARTESIAN_POINT ( 'NONE',  ( 3.410849031209067204E-14, -0.7499999999999998890, 9.769059892324147398 ) ) ;
#224 = CIRCLE ( 'NONE', #64, 0.6419872981077791030 ) ;
#225 = CC_DESIGN_PERSON_AND_ORGANIZATION_ASSIGNMENT ( #208, #152, ( #74 ) ) ;
#226 = ORIENTED_EDGE ( 'NONE', *, *, #83, .F. ) ;
#227 = PERSON_AND_ORGANIZATION_ROLE ( 'design_supplier' ) ;
#228 =( GEOMETRIC_REPRESENTATION_CONTEXT ( 3 ) GLOBAL_UNCERTAINTY_ASSIGNED_CONTEXT ( ( #147 ) ) GLOBAL_UNIT_ASSIGNED_CONTEXT ( ( #201, #61, #96 ) ) REPRESENTATION_CONTEXT ( 'NONE', 'WORKASPACE' ) );
#229 = AXIS2_PLACEMENT_3D ( 'NONE', #110, #58, #15 ) ;
#230 = APPROVAL ( #133, 'UNSPECIFIED' ) ;
#231 = DIRECTION ( 'NONE',  ( 1.000000000000000000, 0.0000000000000000000, 0.0000000000000000000 ) ) ;
#232 = PERSON_AND_ORGANIZATION ( #183, #154 ) ;
#233 = EDGE_CURVE ( 'NONE', #56, #56, #224, .T. ) ;
#234 = FACE_BOUND ( 'NONE', #107, .T. ) ;
#235 = EDGE_LOOP ( 'NONE', ( #161 ) ) ;
#236 = CLOSED_SHELL ( 'NONE', ( #237, #118, #53, #127, #79, #214 ) ) ;
#237 = ADVANCED_FACE ( 'NONE', ( #221, #129 ), #145, .T. ) ;
#238 = DIRECTION ( 'NONE',  ( 0.0000000000000000000, 1.000000000000000000, 0.0000000000000000000 ) ) ;
#239 = PLANE ( 'NONE',  #222 ) ;
#240 = CARTESIAN_POINT ( 'NONE',  ( 0.0000000000000000000, 0.0000000000000000000, 0.0000000000000000000 ) ) ;
#241 = FACE_OUTER_BOUND ( 'NONE', #47, .T. ) ;
#242 = CYLINDRICAL_SURFACE ( 'NONE', #195, 0.5749999999999999556 ) ;
#243 = SECURITY_CLASSIFICATION_LEVEL ( 'unclassified' ) ;
ENDSEC;
END-ISO-10303-21;
