ISO-10303-21;
HEADER;
FILE_DESCRIPTION (( 'STEP AP203' ),
    '1' );
FILE_NAME ('955394.step',
    '2021-11-10T12:11:21',
    ( '' ),
    ( '' ),
    'SwSTEP 2.0',
    'SolidWorks 2019',
    '' );
FILE_SCHEMA (( 'CONFIG_CONTROL_DESIGN' ));
ENDSEC;

DATA;
#1 =( NAMED_UNIT ( * ) PLANE_ANGLE_UNIT ( ) SI_UNIT ( $, .RADIAN. ) );
#2 = AXIS2_PLACEMENT_3D ( 'NONE', #174, #239, #116 ) ;
#3 = CC_DESIGN_DATE_AND_TIME_ASSIGNMENT ( #143, #124, ( #183 ) ) ;
#4 = ORIENTED_EDGE ( 'NONE', *, *, #39, .T. ) ;
#5 = AXIS2_PLACEMENT_3D ( 'NONE', #140, #190, #18 ) ;
#6 = PERSON_AND_ORGANIZATION_ROLE ( 'creator' ) ;
#7 = EDGE_LOOP ( 'NONE', ( #219 ) ) ;
#8 = APPROVAL_STATUS ( 'not_yet_approved' ) ;
#9 = CLOSED_SHELL ( 'NONE', ( #139, #92, #222 ) ) ;
#10 = CYLINDRICAL_SURFACE ( 'NONE', #164, 0.7499999999999986677 ) ;
#11 = AXIS2_PLACEMENT_3D ( 'NONE', #104, #220, #126 ) ;
#12 = CARTESIAN_POINT ( 'NONE',  ( 3.253202627955659952E-14, 4.124339402320090632E-33, 9.317542648054292442 ) ) ;
#13 = DIRECTION ( 'NONE',  ( 0.0000000000000000000, -1.000000000000000000, 0.0000000000000000000 ) ) ;
#14 = VERTEX_POINT ( 'NONE', #241 ) ;
#15 = CALENDAR_DATE ( 2021, 10, 11 ) ;
#16 = AXIS2_PLACEMENT_3D ( 'NONE', #227, #43, #119 ) ;
#17 = FACE_OUTER_BOUND ( 'NONE', #34, .T. ) ;
#18 = DIRECTION ( 'NONE',  ( 1.000000000000000000, 0.0000000000000000000, 0.0000000000000000000 ) ) ;
#19 = DIRECTION ( 'NONE',  ( 0.0000000000000000000, 1.000000000000000000, 0.0000000000000000000 ) ) ;
#20 = ORIENTED_EDGE ( 'NONE', *, *, #39, .F. ) ;
#21 = LOCAL_TIME ( 13, 11, 21.00000000000000000, #235 ) ;
#22 = APPLICATION_CONTEXT ( 'configuration controlled 3d designs of mechanical parts and assemblies' ) ;
#23 = ORIENTED_EDGE ( 'NONE', *, *, #229, .F. ) ;
#24 = PERSON_AND_ORGANIZATION ( #177, #66 ) ;
#25 = EDGE_LOOP ( 'NONE', ( #23 ) ) ;
#26 = APPROVAL_DATE_TIME ( #35, #33 ) ;
#27 = AXIS2_PLACEMENT_3D ( 'NONE', #106, #78, #77 ) ;
#28 = CC_DESIGN_DATE_AND_TIME_ASSIGNMENT ( #228, #161, ( #156 ) ) ;
#29 = EDGE_LOOP ( 'NONE', ( #178 ) ) ;
#30 = PLANE ( 'NONE',  #86 ) ;
#31 = APPROVAL_STATUS ( 'not_yet_approved' ) ;
#32 = FACE_OUTER_BOUND ( 'NONE', #63, .T. ) ;
#33 = APPROVAL ( #8, 'UNSPECIFIED' ) ;
#34 = EDGE_LOOP ( 'NONE', ( #82 ) ) ;
#35 = DATE_AND_TIME ( #146, #225 ) ;
#36 = CARTESIAN_POINT ( 'NONE',  ( 3.253202627955659952E-14, -1.141069877985864208E-15, 9.317542648054292442 ) ) ;
#37 = VERTEX_POINT ( 'NONE', #237 ) ;
#38 = DIRECTION ( 'NONE',  ( -4.554490559825206315E-31, -1.000000000000000000, -1.281975124255702555E-16 ) ) ;
#39 = EDGE_CURVE ( 'NONE', #85, #85, #48, .T. ) ;
#40 = AXIS2_PLACEMENT_3D ( 'NONE', #12, #170, #111 ) ;
#41 = DIRECTION ( 'NONE',  ( -3.491481338843133355E-15, 1.224646799147353207E-16, -1.000000000000000000 ) ) ;
#42 = PERSON_AND_ORGANIZATION ( #177, #66 ) ;
#43 = DIRECTION ( 'NONE',  ( -3.491481338843133355E-15, 1.224646799147353207E-16, -1.000000000000000000 ) ) ;
#44 = FACE_OUTER_BOUND ( 'NONE', #79, .T. ) ;
#45 = PERSON_AND_ORGANIZATION_ROLE ( 'design_owner' ) ;
#46 = DATE_AND_TIME ( #89, #243 ) ;
#47 = SHAPE_DEFINITION_REPRESENTATION ( #133, #91 ) ;
#48 = CIRCLE ( 'NONE', #230, 0.5500000000000000444 ) ;
#49 = EDGE_LOOP ( 'NONE', ( #4 ) ) ;
#50 = LOCAL_TIME ( 13, 11, 21.00000000000000000, #67 ) ;
#51 = CC_DESIGN_PERSON_AND_ORGANIZATION_ASSIGNMENT ( #242, #74, ( #156 ) ) ;
#52 = APPROVAL_ROLE ( '' ) ;
#53 = CIRCLE ( 'NONE', #81, 0.7499999999999986677 ) ;
#54 = SECURITY_CLASSIFICATION_LEVEL ( 'unclassified' ) ;
#55 = FACE_OUTER_BOUND ( 'NONE', #29, .T. ) ;
#56 = CARTESIAN_POINT ( 'NONE',  ( 1.042207179644675275E-13, 0.7499999999999962252, 29.84999999999999787 ) ) ;
#57 = CARTESIAN_POINT ( 'NONE',  ( 1.108694229968395179E-15, 0.5500000000000000444, 0.3175426480542925534 ) ) ;
#58 = DIRECTION ( 'NONE',  ( -3.491481338843133355E-15, 1.224646799147353207E-16, -1.000000000000000000 ) ) ;
#59 = APPROVAL_PERSON_ORGANIZATION ( #65, #33, #201 ) ;
#60 = DIRECTION ( 'NONE',  ( 0.0000000000000000000, -1.000000000000000000, 0.0000000000000000000 ) ) ;
#61 = EDGE_CURVE ( 'NONE', #134, #134, #141, .T. ) ;
#62 = TOROIDAL_SURFACE ( 'NONE', #27, 1.050000000000000044, 0.5000000000000000000 ) ;
#63 = EDGE_LOOP ( 'NONE', ( #129 ) ) ;
#64 = CALENDAR_DATE ( 2021, 10, 11 ) ;
#65 = PERSON_AND_ORGANIZATION ( #177, #66 ) ;
#66 = ORGANIZATION ( 'UNSPECIFIED', 'UNSPECIFIED', '' ) ;
#67 = COORDINATED_UNIVERSAL_TIME_OFFSET ( 1, 0, .AHEAD. ) ;
#68 = ORIENTED_EDGE ( 'NONE', *, *, #236, .F. ) ;
#69 = EDGE_CURVE ( 'NONE', #238, #238, #125, .T. ) ;
#70 =( LENGTH_UNIT ( ) NAMED_UNIT ( * ) SI_UNIT ( .MILLI., .METRE. ) );
#71 = FACE_OUTER_BOUND ( 'NONE', #25, .T. ) ;
#72 = VERTEX_POINT ( 'NONE', #56 ) ;
#73 = DIRECTION ( 'NONE',  ( 0.0000000000000000000, 1.000000000000000000, 0.0000000000000000000 ) ) ;
#74 = PERSON_AND_ORGANIZATION_ROLE ( 'creator' ) ;
#75 = AXIS2_PLACEMENT_3D ( 'NONE', #123, #194, #19 ) ;
#76 = ORIENTED_EDGE ( 'NONE', *, *, #69, .T. ) ;
#77 = DIRECTION ( 'NONE',  ( 4.275831445896958607E-31, 1.000000000000000000, 1.224646799147353207E-16 ) ) ;
#78 = DIRECTION ( 'NONE',  ( -3.491481338843133355E-15, 1.224646799147353207E-16, -1.000000000000000000 ) ) ;
#79 = EDGE_LOOP ( 'NONE', ( #199 ) ) ;
#80 = COORDINATED_UNIVERSAL_TIME_OFFSET ( 1, 0, .AHEAD. ) ;
#81 = AXIS2_PLACEMENT_3D ( 'NONE', #150, #108, #60 ) ;
#82 = ORIENTED_EDGE ( 'NONE', *, *, #61, .T. ) ;
#83 = APPLICATION_CONTEXT ( 'configuration controlled 3d designs of mechanical parts and assemblies' ) ;
#84 = EDGE_CURVE ( 'NONE', #14, #14, #205, .T. ) ;
#85 = VERTEX_POINT ( 'NONE', #209 ) ;
#86 = AXIS2_PLACEMENT_3D ( 'NONE', #98, #207, #163 ) ;
#87 = DIRECTION ( 'NONE',  ( -3.491481338843133355E-15, 1.224646799147353207E-16, -1.000000000000000000 ) ) ;
#88 = APPROVAL_ROLE ( '' ) ;
#89 = CALENDAR_DATE ( 2021, 10, 11 ) ;
#90 = MECHANICAL_CONTEXT ( 'NONE', #22, 'mechanical' ) ;
#91 = ADVANCED_BREP_SHAPE_REPRESENTATION ( '955394', ( #155, #158, #5 ), #110 ) ;
#92 = ADVANCED_FACE ( 'NONE', ( #17, #132 ), #171, .T. ) ;
#93 = FACE_OUTER_BOUND ( 'NONE', #101, .T. ) ;
#94 = PRODUCT_DEFINITION_FORMATION_WITH_SPECIFIED_SOURCE ( 'ANY', '', #107, .NOT_KNOWN. ) ;
#95 = CC_DESIGN_PERSON_AND_ORGANIZATION_ASSIGNMENT ( #148, #181, ( #94 ) ) ;
#96 = EDGE_LOOP ( 'NONE', ( #196 ) ) ;
#97 = EDGE_LOOP ( 'NONE', ( #167 ) ) ;
#98 = CARTESIAN_POINT ( 'NONE',  ( 3.253202627955659952E-14, 4.124339402320090632E-33, 9.317542648054292442 ) ) ;
#99 = APPROVAL_DATE_TIME ( #200, #166 ) ;
#100 = ADVANCED_FACE ( 'NONE', ( #215, #44 ), #187, .T. ) ;
#101 = EDGE_LOOP ( 'NONE', ( #68 ) ) ;
#102 = PERSON_AND_ORGANIZATION_ROLE ( 'classification_officer' ) ;
#103 = AXIS2_PLACEMENT_3D ( 'NONE', #189, #109, #138 ) ;
#104 = CARTESIAN_POINT ( 'NONE',  ( 1.047444401652940007E-13, -3.673940397442059178E-15, 30.00000000000000000 ) ) ;
#105 = CC_DESIGN_PERSON_AND_ORGANIZATION_ASSIGNMENT ( #24, #102, ( #183 ) ) ;
#106 = CARTESIAN_POINT ( 'NONE',  ( 3.253202627955659952E-14, -1.084202172485504434E-15, 9.317542648054292442 ) ) ;
#107 = PRODUCT ( '955394', '955394', '', ( #90 ) ) ;
#108 = DIRECTION ( 'NONE',  ( -3.491481338843133355E-15, 1.247135059052984700E-16, -1.000000000000000000 ) ) ;
#109 = DIRECTION ( 'NONE',  ( -3.491481338843133355E-15, 1.224646799147353207E-16, -1.000000000000000000 ) ) ;
#110 =( GEOMETRIC_REPRESENTATION_CONTEXT ( 3 ) GLOBAL_UNCERTAINTY_ASSIGNED_CONTEXT ( ( #152 ) ) GLOBAL_UNIT_ASSIGNED_CONTEXT ( ( #70, #1, #193 ) ) REPRESENTATION_CONTEXT ( 'NONE', 'WORKASPACE' ) );
#111 = DIRECTION ( 'NONE',  ( -4.275831445896958607E-31, -1.000000000000000000, -1.224646799147353207E-16 ) ) ;
#112 = APPROVAL_DATE_TIME ( #46, #162 ) ;
#113 = PRODUCT_RELATED_PRODUCT_CATEGORY ( 'detail', '', ( #107 ) ) ;
#114 = CARTESIAN_POINT ( 'NONE',  ( 3.340489661426736708E-14, -1.193201786537313610E-15, 9.567542648054288890 ) ) ;
#115 = COORDINATED_UNIVERSAL_TIME_OFFSET ( 1, 0, .AHEAD. ) ;
#116 = DIRECTION ( 'NONE',  ( 0.0000000000000000000, -1.000000000000000000, 0.0000000000000000000 ) ) ;
#117 = APPROVAL_STATUS ( 'not_yet_approved' ) ;
#118 = AXIS2_PLACEMENT_3D ( 'NONE', #224, #41, #188 ) ;
#119 = DIRECTION ( 'NONE',  ( 3.501690807976792142E-31, 1.000000000000000000, 9.856383386231857595E-17 ) ) ;
#120 = CC_DESIGN_PERSON_AND_ORGANIZATION_ASSIGNMENT ( #137, #45, ( #107 ) ) ;
#121 = CARTESIAN_POINT ( 'NONE',  ( 1.047444401652940007E-13, 4.499279347985518085E-33, 30.00000000000000000 ) ) ;
#122 = CONICAL_SURFACE ( 'NONE', #191, 1732.050807568886512, 1.047197551196600074 ) ;
#123 = CARTESIAN_POINT ( 'NONE',  ( 1.042207179644675275E-13, -3.655570695454848748E-15, 29.84999999999999787 ) ) ;
#124 = DATE_TIME_ROLE ( 'classification_date' ) ;
#125 = CIRCLE ( 'NONE', #16, 0.5500000000000000444 ) ;
#126 = DIRECTION ( 'NONE',  ( 0.0000000000000000000, 1.000000000000000000, 0.0000000000000000000 ) ) ;
#127 = EDGE_LOOP ( 'NONE', ( #20 ) ) ;
#128 = CALENDAR_DATE ( 2021, 10, 11 ) ;
#129 = ORIENTED_EDGE ( 'NONE', *, *, #61, .F. ) ;
#130 = AXIS2_PLACEMENT_3D ( 'NONE', #218, #58, #73 ) ;
#131 = CARTESIAN_POINT ( 'NONE',  ( 3.253202627955659952E-14, 0.5499999999999988232, 9.317542648054292442 ) ) ;
#132 = FACE_OUTER_BOUND ( 'NONE', #206, .T. ) ;
#133 = PRODUCT_DEFINITION_SHAPE ( 'NONE', 'NONE',  #156 ) ;
#134 = VERTEX_POINT ( 'NONE', #131 ) ;
#135 = FACE_OUTER_BOUND ( 'NONE', #147, .T. ) ;
#136 = APPROVAL_PERSON_ORGANIZATION ( #204, #166, #52 ) ;
#137 = PERSON_AND_ORGANIZATION ( #177, #66 ) ;
#138 = DIRECTION ( 'NONE',  ( 4.275831445896958607E-31, 1.000000000000000000, 1.224646799147353207E-16 ) ) ;
#139 = ADVANCED_FACE ( 'NONE', ( #135 ), #122, .T. ) ;
#140 = CARTESIAN_POINT ( 'NONE',  ( 0.0000000000000000000, 0.0000000000000000000, 0.0000000000000000000 ) ) ;
#141 = CIRCLE ( 'NONE', #130, 0.5500000000000000444 ) ;
#142 = DIRECTION ( 'NONE',  ( 4.275831445896958607E-31, 1.000000000000000000, 1.224646799147353207E-16 ) ) ;
#143 = DATE_AND_TIME ( #128, #21 ) ;
#144 = CONICAL_SURFACE ( 'NONE', #11, 0.6000000000000000888, 0.7853981633974450594 ) ;
#145 = FACE_OUTER_BOUND ( 'NONE', #203, .T. ) ;
#146 = CALENDAR_DATE ( 2021, 10, 11 ) ;
#147 = EDGE_LOOP ( 'NONE', ( #76 ) ) ;
#148 = PERSON_AND_ORGANIZATION ( #177, #66 ) ;
#149 = ORIENTED_EDGE ( 'NONE', *, *, #69, .F. ) ;
#150 = CARTESIAN_POINT ( 'NONE',  ( 3.420928069663326183E-14, -1.221933877380882408E-15, 9.797927405783630306 ) ) ;
#151 = FACE_OUTER_BOUND ( 'NONE', #7, .T. ) ;
#152 = UNCERTAINTY_MEASURE_WITH_UNIT (LENGTH_MEASURE( 1.000000000000000082E-05 ), #70, 'distance_accuracy_value', 'NONE');
#153 = EDGE_CURVE ( 'NONE', #72, #72, #176, .T. ) ;
#154 = VERTEX_POINT ( 'NONE', #168 ) ;
#155 = MANIFOLD_SOLID_BREP ( 'Corps-Déplacer/Copier1[1]', #232 ) ;
#156 = PRODUCT_DEFINITION ( 'UNKNOWN', '', #94, #226 ) ;
#157 = DIRECTION ( 'NONE',  ( 0.0000000000000000000, 1.000000000000000000, 0.0000000000000000000 ) ) ;
#158 = MANIFOLD_SOLID_BREP ( 'Corps-Déplacer/Copier1[2]', #9 ) ;
#159 = ADVANCED_FACE ( 'NONE', ( #93 ), #175, .F. ) ;
#160 = APPROVAL_PERSON_ORGANIZATION ( #42, #162, #88 ) ;
#161 = DATE_TIME_ROLE ( 'creation_date' ) ;
#162 = APPROVAL ( #117, 'UNSPECIFIED' ) ;
#163 = DIRECTION ( 'NONE',  ( -4.275831445896958607E-31, -1.000000000000000000, -1.224646799147353207E-16 ) ) ;
#164 = AXIS2_PLACEMENT_3D ( 'NONE', #172, #87, #186 ) ;
#165 = FACE_BOUND ( 'NONE', #97, .T. ) ;
#166 = APPROVAL ( #31, 'UNSPECIFIED' ) ;
#167 = ORIENTED_EDGE ( 'NONE', *, *, #236, .T. ) ;
#168 = CARTESIAN_POINT ( 'NONE',  ( 3.420928069663326183E-14, -0.7499999999999998890, 9.797927405783630306 ) ) ;
#169 = CC_DESIGN_APPROVAL ( #33, ( #183 ) ) ;
#170 = DIRECTION ( 'NONE',  ( 3.491481338843133355E-15, -1.224646799147353207E-16, 1.000000000000000000 ) ) ;
#171 = CYLINDRICAL_SURFACE ( 'NONE', #103, 0.5500000000000000444 ) ;
#172 = CARTESIAN_POINT ( 'NONE',  ( 0.0000000000000000000, 0.0000000000000000000, 0.0000000000000000000 ) ) ;
#173 = CC_DESIGN_APPROVAL ( #166, ( #94 ) ) ;
#174 = CARTESIAN_POINT ( 'NONE',  ( 3.481402300388875639E-14, -1.243534890242684598E-15, 9.971132486540520645 ) ) ;
#175 = PLANE ( 'NONE',  #202 ) ;
#176 = CIRCLE ( 'NONE', #75, 0.7499999999999998890 ) ;
#177 = PERSON ( 'UNSPECIFIED', 'UNSPECIFIED', 'UNSPECIFIED', ('UNSPECIFIED'), ('UNSPECIFIED'), ('UNSPECIFIED') ) ;
#178 = ORIENTED_EDGE ( 'NONE', *, *, #84, .F. ) ;
#179 = CC_DESIGN_APPROVAL ( #162, ( #156 ) ) ;
#180 = PERSON_AND_ORGANIZATION ( #177, #66 ) ;
#181 = PERSON_AND_ORGANIZATION_ROLE ( 'design_supplier' ) ;
#182 = CC_DESIGN_SECURITY_CLASSIFICATION ( #183, ( #94 ) ) ;
#183 = SECURITY_CLASSIFICATION ( '', '', #54 ) ;
#184 = ORIENTED_EDGE ( 'NONE', *, *, #153, .F. ) ;
#185 = DIRECTION ( 'NONE',  ( -3.491481338843133355E-15, 1.224646799147353207E-16, -1.000000000000000000 ) ) ;
#186 = DIRECTION ( 'NONE',  ( 4.275831445896959482E-31, 1.000000000000000000, 1.224646799147353207E-16 ) ) ;
#187 = CONICAL_SURFACE ( 'NONE', #2, 0.8499999999999988676, 0.5235987755982922653 ) ;
#188 = DIRECTION ( 'NONE',  ( 0.0000000000000000000, 1.000000000000000000, 0.0000000000000000000 ) ) ;
#189 = CARTESIAN_POINT ( 'NONE',  ( 0.0000000000000000000, 0.0000000000000000000, 0.0000000000000000000 ) ) ;
#190 = DIRECTION ( 'NONE',  ( 0.0000000000000000000, 0.0000000000000000000, 1.000000000000000000 ) ) ;
#191 = AXIS2_PLACEMENT_3D ( 'NONE', #223, #210, #38 ) ;
#192 = DIRECTION ( 'NONE',  ( 3.491481338843133355E-15, -1.247135059052984700E-16, 1.000000000000000000 ) ) ;
#193 =( NAMED_UNIT ( * ) SI_UNIT ( $, .STERADIAN. ) SOLID_ANGLE_UNIT ( ) );
#194 = DIRECTION ( 'NONE',  ( -3.491481338843133355E-15, 1.224646799147353207E-16, -1.000000000000000000 ) ) ;
#195 = ADVANCED_FACE ( 'NONE', ( #208, #55 ), #62, .F. ) ;
#196 = ORIENTED_EDGE ( 'NONE', *, *, #84, .T. ) ;
#197 = CIRCLE ( 'NONE', #118, 0.6000000000000000888 ) ;
#198 = CC_DESIGN_PERSON_AND_ORGANIZATION_ASSIGNMENT ( #180, #6, ( #94 ) ) ;
#199 = ORIENTED_EDGE ( 'NONE', *, *, #229, .T. ) ;
#200 = DATE_AND_TIME ( #64, #50 ) ;
#201 = APPROVAL_ROLE ( '' ) ;
#202 = AXIS2_PLACEMENT_3D ( 'NONE', #121, #231, #142 ) ;
#203 = EDGE_LOOP ( 'NONE', ( #184 ) ) ;
#204 = PERSON_AND_ORGANIZATION ( #177, #66 ) ;
#205 = CIRCLE ( 'NONE', #217, 0.6169872981077793028 ) ;
#206 = EDGE_LOOP ( 'NONE', ( #149 ) ) ;
#207 = DIRECTION ( 'NONE',  ( 3.491481338843133355E-15, -1.224646799147353207E-16, 1.000000000000000000 ) ) ;
#208 = FACE_OUTER_BOUND ( 'NONE', #127, .T. ) ;
#209 = CARTESIAN_POINT ( 'NONE',  ( 3.253202627955659952E-14, 0.5499999999999988232, 9.317542648054292442 ) ) ;
#210 = DIRECTION ( 'NONE',  ( 3.491481338843133355E-15, -1.224646799147353207E-16, 1.000000000000000000 ) ) ;
#211 = PLANE ( 'NONE',  #40 ) ;
#212 = LOCAL_TIME ( 13, 11, 21.00000000000000000, #115 ) ;
#213 = APPLICATION_PROTOCOL_DEFINITION ( 'international standard', 'config_control_design', 1994, #83 ) ;
#214 = ADVANCED_FACE ( 'NONE', ( #233 ), #30, .F. ) ;
#215 = FACE_BOUND ( 'NONE', #96, .T. ) ;
#216 = APPLICATION_PROTOCOL_DEFINITION ( 'international standard', 'config_control_design', 1994, #22 ) ;
#217 = AXIS2_PLACEMENT_3D ( 'NONE', #114, #192, #13 ) ;
#218 = CARTESIAN_POINT ( 'NONE',  ( 3.253202627955659952E-14, -1.141069877985864208E-15, 9.317542648054292442 ) ) ;
#219 = ORIENTED_EDGE ( 'NONE', *, *, #153, .T. ) ;
#220 = DIRECTION ( 'NONE',  ( -3.491481338843133355E-15, 1.224646799147353207E-16, -1.000000000000000000 ) ) ;
#221 = ADVANCED_FACE ( 'NONE', ( #145, #165 ), #144, .T. ) ;
#222 = ADVANCED_FACE ( 'NONE', ( #32 ), #211, .T. ) ;
#223 = CARTESIAN_POINT ( 'NONE',  ( 3.491481338843133254E-12, -1.224646799147353249E-13, 1000.000000000000000 ) ) ;
#224 = CARTESIAN_POINT ( 'NONE',  ( 1.047444401652940007E-13, -3.673940397442059178E-15, 30.00000000000000000 ) ) ;
#225 = LOCAL_TIME ( 13, 11, 21.00000000000000000, #80 ) ;
#226 = DESIGN_CONTEXT ( 'detailed design', #83, 'design' ) ;
#227 = CARTESIAN_POINT ( 'NONE',  ( 1.108694229968394982E-15, -3.888775875324638309E-17, 0.3175426480542924979 ) ) ;
#228 = DATE_AND_TIME ( #15, #212 ) ;
#229 = EDGE_CURVE ( 'NONE', #154, #154, #53, .T. ) ;
#230 = AXIS2_PLACEMENT_3D ( 'NONE', #36, #185, #157 ) ;
#231 = DIRECTION ( 'NONE',  ( -3.491481338843133355E-15, 1.224646799147353207E-16, -1.000000000000000000 ) ) ;
#232 = CLOSED_SHELL ( 'NONE', ( #234, #221, #159, #100, #214, #195 ) ) ;
#233 = FACE_OUTER_BOUND ( 'NONE', #49, .T. ) ;
#234 = ADVANCED_FACE ( 'NONE', ( #151, #71 ), #10, .T. ) ;
#235 = COORDINATED_UNIVERSAL_TIME_OFFSET ( 1, 0, .AHEAD. ) ;
#236 = EDGE_CURVE ( 'NONE', #37, #37, #197, .T. ) ;
#237 = CARTESIAN_POINT ( 'NONE',  ( 1.047444401652940007E-13, 0.5999999999999963141, 30.00000000000000000 ) ) ;
#238 = VERTEX_POINT ( 'NONE', #57 ) ;
#239 = DIRECTION ( 'NONE',  ( 3.491481338843133355E-15, -1.247135059052984700E-16, 1.000000000000000000 ) ) ;
#240 = COORDINATED_UNIVERSAL_TIME_OFFSET ( 1, 0, .AHEAD. ) ;
#241 = CARTESIAN_POINT ( 'NONE',  ( 3.340489661426736708E-14, -0.6169872981077805241, 9.567542648054288890 ) ) ;
#242 = PERSON_AND_ORGANIZATION ( #177, #66 ) ;
#243 = LOCAL_TIME ( 13, 11, 21.00000000000000000, #240 ) ;
ENDSEC;
END-ISO-10303-21;
