ISO-10303-21;
HEADER;
FILE_DESCRIPTION (( 'STEP AP203' ),
    '1' );
FILE_NAME ('955393.step',
    '2021-11-10T12:11:20',
    ( '' ),
    ( '' ),
    'SwSTEP 2.0',
    'SolidWorks 2019',
    '' );
FILE_SCHEMA (( 'CONFIG_CONTROL_DESIGN' ));
ENDSEC;

DATA;
#1 = VERTEX_POINT ( 'NONE', #191 ) ;
#2 = AXIS2_PLACEMENT_3D ( 'NONE', #45, #238, #121 ) ;
#3 = ORIENTED_EDGE ( 'NONE', *, *, #243, .F. ) ;
#4 = ORIENTED_EDGE ( 'NONE', *, *, #85, .F. ) ;
#5 = DIRECTION ( 'NONE',  ( 0.0000000000000000000, 1.000000000000000000, 0.0000000000000000000 ) ) ;
#6 = VERTEX_POINT ( 'NONE', #26 ) ;
#7 = EDGE_LOOP ( 'NONE', ( #3 ) ) ;
#8 = CYLINDRICAL_SURFACE ( 'NONE', #98, 0.5250000000000001332 ) ;
#9 = DIRECTION ( 'NONE',  ( -3.491481338843133355E-15, 1.224646799147353207E-16, -1.000000000000000000 ) ) ;
#10 = DIRECTION ( 'NONE',  ( 4.275831445896958607E-31, 1.000000000000000000, 1.224646799147353207E-16 ) ) ;
#11 = CC_DESIGN_APPROVAL ( #143, ( #47 ) ) ;
#12 = CARTESIAN_POINT ( 'NONE',  ( 1.047444401652940007E-13, 4.499279347985518085E-33, 30.00000000000000000 ) ) ;
#13 = ADVANCED_FACE ( 'NONE', ( #178, #230 ), #151, .F. ) ;
#14 = PERSON_AND_ORGANIZATION ( #89, #132 ) ;
#15 = EDGE_LOOP ( 'NONE', ( #150 ) ) ;
#16 = PERSON_AND_ORGANIZATION ( #89, #132 ) ;
#17 = CARTESIAN_POINT ( 'NONE',  ( 1.047444401652940007E-13, -3.673940397442059178E-15, 30.00000000000000000 ) ) ;
#18 = LOCAL_TIME ( 13, 11, 20.00000000000000000, #241 ) ;
#19 = CONICAL_SURFACE ( 'NONE', #139, 0.6000000000000000888, 0.7853981633974450594 ) ;
#20 = CIRCLE ( 'NONE', #55, 0.7499999999999986677 ) ;
#21 = AXIS2_PLACEMENT_3D ( 'NONE', #61, #58, #240 ) ;
#22 = APPLICATION_CONTEXT ( 'configuration controlled 3d designs of mechanical parts and assemblies' ) ;
#23 = CARTESIAN_POINT ( 'NONE',  ( 3.248163108728530778E-14, 0.5249999999999990230, 9.303108891324551877 ) ) ;
#24 = APPROVAL ( #235, 'UNSPECIFIED' ) ;
#25 = CARTESIAN_POINT ( 'NONE',  ( 0.0000000000000000000, 0.0000000000000000000, 0.0000000000000000000 ) ) ;
#26 = CARTESIAN_POINT ( 'NONE',  ( 3.248163108728530778E-14, 0.5249999999999990230, 9.303108891324551877 ) ) ;
#27 = VERTEX_POINT ( 'NONE', #135 ) ;
#28 = DIRECTION ( 'NONE',  ( 0.0000000000000000000, 1.000000000000000000, 0.0000000000000000000 ) ) ;
#29 = DATE_TIME_ROLE ( 'classification_date' ) ;
#30 = CARTESIAN_POINT ( 'NONE',  ( 3.335450142199607534E-14, -1.191401702132163313E-15, 9.553108891324548324 ) ) ;
#31 = ORIENTED_EDGE ( 'NONE', *, *, #226, .F. ) ;
#32 = CIRCLE ( 'NONE', #212, 0.6000000000000000888 ) ;
#33 = DATE_AND_TIME ( #52, #129 ) ;
#34 = DIRECTION ( 'NONE',  ( 0.0000000000000000000, 1.000000000000000000, 0.0000000000000000000 ) ) ;
#35 = CC_DESIGN_APPROVAL ( #24, ( #70 ) ) ;
#36 = CONICAL_SURFACE ( 'NONE', #134, 0.8499999999999988676, 0.5235987755982911551 ) ;
#37 = EDGE_CURVE ( 'NONE', #1, #1, #20, .T. ) ;
#38 = SECURITY_CLASSIFICATION ( '', '', #163 ) ;
#39 = DIRECTION ( 'NONE',  ( 0.0000000000000000000, -1.000000000000000000, 0.0000000000000000000 ) ) ;
#40 = FACE_BOUND ( 'NONE', #124, .T. ) ;
#41 = CIRCLE ( 'NONE', #175, 0.5250000000000001332 ) ;
#42 = MECHANICAL_CONTEXT ( 'NONE', #207, 'mechanical' ) ;
#43 = APPROVAL_STATUS ( 'not_yet_approved' ) ;
#44 = CC_DESIGN_PERSON_AND_ORGANIZATION_ASSIGNMENT ( #108, #215, ( #47 ) ) ;
#45 = CARTESIAN_POINT ( 'NONE',  ( 0.0000000000000000000, 0.0000000000000000000, 0.0000000000000000000 ) ) ;
#46 = DATE_AND_TIME ( #165, #167 ) ;
#47 = PRODUCT_DEFINITION_FORMATION_WITH_SPECIFIED_SOURCE ( 'ANY', '', #72, .NOT_KNOWN. ) ;
#48 = ORIENTED_EDGE ( 'NONE', *, *, #37, .F. ) ;
#49 = CARTESIAN_POINT ( 'NONE',  ( 3.248163108728530778E-14, 3.936869429487359799E-33, 9.303108891324551877 ) ) ;
#50 = COORDINATED_UNIVERSAL_TIME_OFFSET ( 1, 0, .AHEAD. ) ;
#51 = DIRECTION ( 'NONE',  ( -4.554490559825206315E-31, -1.000000000000000000, -1.281975124255702555E-16 ) ) ;
#52 = CALENDAR_DATE ( 2021, 10, 11 ) ;
#53 = LOCAL_TIME ( 13, 11, 20.00000000000000000, #237 ) ;
#54 = CC_DESIGN_PERSON_AND_ORGANIZATION_ASSIGNMENT ( #141, #142, ( #38 ) ) ;
#55 = AXIS2_PLACEMENT_3D ( 'NONE', #181, #199, #117 ) ;
#56 = DIRECTION ( 'NONE',  ( 3.491481338843133355E-15, -1.247135059052984700E-16, 1.000000000000000000 ) ) ;
#57 = FACE_OUTER_BOUND ( 'NONE', #105, .T. ) ;
#58 = DIRECTION ( 'NONE',  ( 3.491481338843133355E-15, -1.224646799147353207E-16, 1.000000000000000000 ) ) ;
#59 = DIRECTION ( 'NONE',  ( -3.491481338843133355E-15, 1.224646799147353207E-16, -1.000000000000000000 ) ) ;
#60 = DATE_AND_TIME ( #221, #53 ) ;
#61 = CARTESIAN_POINT ( 'NONE',  ( 3.248163108728530778E-14, 3.936869429487359799E-33, 9.303108891324551877 ) ) ;
#62 = APPROVAL_ROLE ( '' ) ;
#63 = ADVANCED_FACE ( 'NONE', ( #90 ), #164, .T. ) ;
#64 = DIRECTION ( 'NONE',  ( 4.275831445896958607E-31, 1.000000000000000000, 1.224646799147353207E-16 ) ) ;
#65 = CARTESIAN_POINT ( 'NONE',  ( 3.248163108728530778E-14, -1.139302252587989331E-15, 9.303108891324551877 ) ) ;
#66 =( GEOMETRIC_REPRESENTATION_CONTEXT ( 3 ) GLOBAL_UNCERTAINTY_ASSIGNED_CONTEXT ( ( #73 ) ) GLOBAL_UNIT_ASSIGNED_CONTEXT ( ( #205, #96, #110 ) ) REPRESENTATION_CONTEXT ( 'NONE', 'WORKASPACE' ) );
#67 = SHAPE_DEFINITION_REPRESENTATION ( #133, #78 ) ;
#68 = CARTESIAN_POINT ( 'NONE',  ( 3.491481338843133254E-12, -1.224646799147353249E-13, 1000.000000000000000 ) ) ;
#69 = AXIS2_PLACEMENT_3D ( 'NONE', #201, #176, #10 ) ;
#70 = PRODUCT_DEFINITION ( 'UNKNOWN', '', #47, #224 ) ;
#71 = CARTESIAN_POINT ( 'NONE',  ( 1.058299037697104821E-15, 0.5250000000000001332, 0.3031088913245520433 ) ) ;
#72 = PRODUCT ( '955393', '955393', '', ( #42 ) ) ;
#73 = UNCERTAINTY_MEASURE_WITH_UNIT (LENGTH_MEASURE( 1.000000000000000082E-05 ), #205, 'distance_accuracy_value', 'NONE');
#74 = CC_DESIGN_APPROVAL ( #184, ( #38 ) ) ;
#75 = CARTESIAN_POINT ( 'NONE',  ( 3.491481338843133986E-14, -1.247135059052984799E-15, 10.00000000000000178 ) ) ;
#76 = CIRCLE ( 'NONE', #198, 0.5250000000000001332 ) ;
#77 = DIRECTION ( 'NONE',  ( -3.491481338843133355E-15, 1.224646799147353207E-16, -1.000000000000000000 ) ) ;
#78 = ADVANCED_BREP_SHAPE_REPRESENTATION ( '955393', ( #190, #192, #242 ), #66 ) ;
#79 = FACE_OUTER_BOUND ( 'NONE', #87, .T. ) ;
#80 = FACE_OUTER_BOUND ( 'NONE', #15, .T. ) ;
#81 = ORIENTED_EDGE ( 'NONE', *, *, #226, .T. ) ;
#82 = PERSON_AND_ORGANIZATION_ROLE ( 'design_owner' ) ;
#83 = FACE_OUTER_BOUND ( 'NONE', #159, .T. ) ;
#84 = LOCAL_TIME ( 13, 11, 20.00000000000000000, #86 ) ;
#85 = EDGE_CURVE ( 'NONE', #6, #6, #41, .T. ) ;
#86 = COORDINATED_UNIVERSAL_TIME_OFFSET ( 1, 0, .AHEAD. ) ;
#87 = EDGE_LOOP ( 'NONE', ( #48 ) ) ;
#88 = APPROVAL_DATE_TIME ( #60, #24 ) ;
#89 = PERSON ( 'UNSPECIFIED', 'UNSPECIFIED', 'UNSPECIFIED', ('UNSPECIFIED'), ('UNSPECIFIED'), ('UNSPECIFIED') ) ;
#90 = FACE_OUTER_BOUND ( 'NONE', #210, .T. ) ;
#91 = CC_DESIGN_PERSON_AND_ORGANIZATION_ASSIGNMENT ( #200, #82, ( #72 ) ) ;
#92 = VERTEX_POINT ( 'NONE', #155 ) ;
#93 = EDGE_CURVE ( 'NONE', #27, #27, #227, .T. ) ;
#94 = ORIENTED_EDGE ( 'NONE', *, *, #152, .F. ) ;
#95 = APPROVAL_PERSON_ORGANIZATION ( #16, #184, #106 ) ;
#96 =( NAMED_UNIT ( * ) PLANE_ANGLE_UNIT ( ) SI_UNIT ( $, .RADIAN. ) );
#97 = DIRECTION ( 'NONE',  ( 0.0000000000000000000, 0.0000000000000000000, 1.000000000000000000 ) ) ;
#98 = AXIS2_PLACEMENT_3D ( 'NONE', #153, #229, #187 ) ;
#99 = DIRECTION ( 'NONE',  ( -4.275831445896958607E-31, -1.000000000000000000, -1.224646799147353207E-16 ) ) ;
#100 = DIRECTION ( 'NONE',  ( 3.491481338843133355E-15, -1.224646799147353207E-16, 1.000000000000000000 ) ) ;
#101 = PERSON_AND_ORGANIZATION ( #89, #132 ) ;
#102 = DIRECTION ( 'NONE',  ( 0.0000000000000000000, -1.000000000000000000, 0.0000000000000000000 ) ) ;
#103 = APPROVAL_DATE_TIME ( #46, #143 ) ;
#104 = AXIS2_PLACEMENT_3D ( 'NONE', #211, #77, #137 ) ;
#105 = EDGE_LOOP ( 'NONE', ( #126 ) ) ;
#106 = APPROVAL_ROLE ( '' ) ;
#107 = FACE_BOUND ( 'NONE', #140, .T. ) ;
#108 = PERSON_AND_ORGANIZATION ( #89, #132 ) ;
#109 = ADVANCED_FACE ( 'NONE', ( #161, #79 ), #219, .T. ) ;
#110 =( NAMED_UNIT ( * ) SI_UNIT ( $, .STERADIAN. ) SOLID_ANGLE_UNIT ( ) );
#111 = ADVANCED_FACE ( 'NONE', ( #157 ), #193, .F. ) ;
#112 = EDGE_LOOP ( 'NONE', ( #236 ) ) ;
#113 = EDGE_LOOP ( 'NONE', ( #223 ) ) ;
#114 = DIRECTION ( 'NONE',  ( 1.000000000000000000, 0.0000000000000000000, 0.0000000000000000000 ) ) ;
#115 = DIRECTION ( 'NONE',  ( -3.491481338843133355E-15, 1.224646799147353207E-16, -1.000000000000000000 ) ) ;
#116 = CLOSED_SHELL ( 'NONE', ( #172, #204, #63 ) ) ;
#117 = DIRECTION ( 'NONE',  ( 0.0000000000000000000, -1.000000000000000000, 0.0000000000000000000 ) ) ;
#118 = FACE_OUTER_BOUND ( 'NONE', #113, .T. ) ;
#119 = CC_DESIGN_DATE_AND_TIME_ASSIGNMENT ( #218, #122, ( #70 ) ) ;
#120 = APPROVAL_DATE_TIME ( #33, #184 ) ;
#121 = DIRECTION ( 'NONE',  ( 4.275831445896959482E-31, 1.000000000000000000, 1.224646799147353207E-16 ) ) ;
#122 = DATE_TIME_ROLE ( 'creation_date' ) ;
#123 = AXIS2_PLACEMENT_3D ( 'NONE', #30, #144, #102 ) ;
#124 = EDGE_LOOP ( 'NONE', ( #232 ) ) ;
#125 = PRODUCT_RELATED_PRODUCT_CATEGORY ( 'detail', '', ( #72 ) ) ;
#126 = ORIENTED_EDGE ( 'NONE', *, *, #85, .T. ) ;
#127 = DIRECTION ( 'NONE',  ( -3.491481338843133355E-15, 1.224646799147353207E-16, -1.000000000000000000 ) ) ;
#128 = APPLICATION_PROTOCOL_DEFINITION ( 'international standard', 'config_control_design', 1994, #22 ) ;
#129 = LOCAL_TIME ( 13, 11, 20.00000000000000000, #50 ) ;
#130 = CLOSED_SHELL ( 'NONE', ( #109, #162, #131, #206, #111, #13 ) ) ;
#131 = ADVANCED_FACE ( 'NONE', ( #195 ), #177, .F. ) ;
#132 = ORGANIZATION ( 'UNSPECIFIED', 'UNSPECIFIED', '' ) ;
#133 = PRODUCT_DEFINITION_SHAPE ( 'NONE', 'NONE',  #70 ) ;
#134 = AXIS2_PLACEMENT_3D ( 'NONE', #75, #56, #39 ) ;
#135 = CARTESIAN_POINT ( 'NONE',  ( 1.042207179644675275E-13, 0.7499999999999962252, 29.84999999999999787 ) ) ;
#136 = EDGE_LOOP ( 'NONE', ( #94 ) ) ;
#137 = DIRECTION ( 'NONE',  ( 3.668437989309019901E-31, 1.000000000000000000, 1.032573497605242101E-16 ) ) ;
#138 = ORIENTED_EDGE ( 'NONE', *, *, #93, .T. ) ;
#139 = AXIS2_PLACEMENT_3D ( 'NONE', #17, #127, #34 ) ;
#140 = EDGE_LOOP ( 'NONE', ( #81 ) ) ;
#141 = PERSON_AND_ORGANIZATION ( #89, #132 ) ;
#142 = PERSON_AND_ORGANIZATION_ROLE ( 'classification_officer' ) ;
#143 = APPROVAL ( #182, 'UNSPECIFIED' ) ;
#144 = DIRECTION ( 'NONE',  ( 3.491481338843133355E-15, -1.247135059052984700E-16, 1.000000000000000000 ) ) ;
#145 = DIRECTION ( 'NONE',  ( 0.0000000000000000000, 1.000000000000000000, 0.0000000000000000000 ) ) ;
#146 = DIRECTION ( 'NONE',  ( 3.491481338843133355E-15, -1.224646799147353207E-16, 1.000000000000000000 ) ) ;
#147 = PERSON_AND_ORGANIZATION ( #89, #132 ) ;
#148 = AXIS2_PLACEMENT_3D ( 'NONE', #68, #146, #51 ) ;
#149 = VERTEX_POINT ( 'NONE', #23 ) ;
#150 = ORIENTED_EDGE ( 'NONE', *, *, #194, .F. ) ;
#151 = TOROIDAL_SURFACE ( 'NONE', #69, 1.025000000000000133, 0.5000000000000000000 ) ;
#152 = EDGE_CURVE ( 'NONE', #92, #92, #183, .T. ) ;
#153 = CARTESIAN_POINT ( 'NONE',  ( 0.0000000000000000000, 0.0000000000000000000, 0.0000000000000000000 ) ) ;
#154 = CONICAL_SURFACE ( 'NONE', #148, 1732.050807568886512, 1.047197551196600074 ) ;
#155 = CARTESIAN_POINT ( 'NONE',  ( 3.335450142199607534E-14, -0.5919872981077811680, 9.553108891324548324 ) ) ;
#156 = CARTESIAN_POINT ( 'NONE',  ( 1.047444401652940007E-13, 0.5999999999999963141, 30.00000000000000000 ) ) ;
#157 = FACE_OUTER_BOUND ( 'NONE', #112, .T. ) ;
#158 = DIRECTION ( 'NONE',  ( -3.491481338843133355E-15, 1.224646799147353207E-16, -1.000000000000000000 ) ) ;
#159 = EDGE_LOOP ( 'NONE', ( #174 ) ) ;
#160 = PERSON_AND_ORGANIZATION ( #89, #132 ) ;
#161 = FACE_OUTER_BOUND ( 'NONE', #214, .T. ) ;
#162 = ADVANCED_FACE ( 'NONE', ( #83, #107 ), #19, .T. ) ;
#163 = SECURITY_CLASSIFICATION_LEVEL ( 'unclassified' ) ;
#164 = PLANE ( 'NONE',  #21 ) ;
#165 = CALENDAR_DATE ( 2021, 10, 11 ) ;
#166 = CALENDAR_DATE ( 2021, 10, 11 ) ;
#167 = LOCAL_TIME ( 13, 11, 20.00000000000000000, #239 ) ;
#168 = FACE_OUTER_BOUND ( 'NONE', #216, .T. ) ;
#169 = PERSON_AND_ORGANIZATION_ROLE ( 'creator' ) ;
#170 = CC_DESIGN_DATE_AND_TIME_ASSIGNMENT ( #197, #29, ( #38 ) ) ;
#171 = AXIS2_PLACEMENT_3D ( 'NONE', #189, #59, #28 ) ;
#172 = ADVANCED_FACE ( 'NONE', ( #168 ), #154, .T. ) ;
#173 = ORIENTED_EDGE ( 'NONE', *, *, #194, .T. ) ;
#174 = ORIENTED_EDGE ( 'NONE', *, *, #93, .F. ) ;
#175 = AXIS2_PLACEMENT_3D ( 'NONE', #65, #180, #145 ) ;
#176 = DIRECTION ( 'NONE',  ( -3.491481338843133355E-15, 1.224646799147353207E-16, -1.000000000000000000 ) ) ;
#177 = PLANE ( 'NONE',  #234 ) ;
#178 = FACE_OUTER_BOUND ( 'NONE', #7, .T. ) ;
#179 = PERSON_AND_ORGANIZATION_ROLE ( 'creator' ) ;
#180 = DIRECTION ( 'NONE',  ( -3.491481338843133355E-15, 1.224646799147353207E-16, -1.000000000000000000 ) ) ;
#181 = CARTESIAN_POINT ( 'NONE',  ( 3.431007108117583900E-14, -1.225534046191182608E-15, 9.826794919243109661 ) ) ;
#182 = APPROVAL_STATUS ( 'not_yet_approved' ) ;
#183 = CIRCLE ( 'NONE', #123, 0.5919872981077799468 ) ;
#184 = APPROVAL ( #43, 'UNSPECIFIED' ) ;
#185 = CC_DESIGN_SECURITY_CLASSIFICATION ( #38, ( #47 ) ) ;
#186 = EDGE_LOOP ( 'NONE', ( #31 ) ) ;
#187 = DIRECTION ( 'NONE',  ( 4.275831445896959482E-31, 1.000000000000000000, 1.224646799147353454E-16 ) ) ;
#188 = APPLICATION_PROTOCOL_DEFINITION ( 'international standard', 'config_control_design', 1994, #207 ) ;
#189 = CARTESIAN_POINT ( 'NONE',  ( 1.042207179644675275E-13, -3.655570695454848748E-15, 29.84999999999999787 ) ) ;
#190 = MANIFOLD_SOLID_BREP ( 'Corps-Déplacer/Copier1[1]', #130 ) ;
#191 = CARTESIAN_POINT ( 'NONE',  ( 3.431007108117583900E-14, -0.7499999999999998890, 9.826794919243109661 ) ) ;
#192 = MANIFOLD_SOLID_BREP ( 'Corps-Déplacer/Copier1[2]', #116 ) ;
#193 = PLANE ( 'NONE',  #208 ) ;
#194 = EDGE_CURVE ( 'NONE', #209, #209, #222, .T. ) ;
#195 = FACE_OUTER_BOUND ( 'NONE', #186, .T. ) ;
#196 = APPROVAL_PERSON_ORGANIZATION ( #147, #143, #220 ) ;
#197 = DATE_AND_TIME ( #217, #18 ) ;
#198 = AXIS2_PLACEMENT_3D ( 'NONE', #213, #115, #5 ) ;
#199 = DIRECTION ( 'NONE',  ( -3.491481338843133355E-15, 1.247135059052984700E-16, -1.000000000000000000 ) ) ;
#200 = PERSON_AND_ORGANIZATION ( #89, #132 ) ;
#201 = CARTESIAN_POINT ( 'NONE',  ( 3.248163108728530778E-14, -1.084202172485504434E-15, 9.303108891324551877 ) ) ;
#202 = CC_DESIGN_PERSON_AND_ORGANIZATION_ASSIGNMENT ( #14, #169, ( #70 ) ) ;
#203 = APPROVAL_PERSON_ORGANIZATION ( #160, #24, #62 ) ;
#204 = ADVANCED_FACE ( 'NONE', ( #57, #80 ), #8, .T. ) ;
#205 =( LENGTH_UNIT ( ) NAMED_UNIT ( * ) SI_UNIT ( .MILLI., .METRE. ) );
#206 = ADVANCED_FACE ( 'NONE', ( #40, #118 ), #36, .T. ) ;
#207 = APPLICATION_CONTEXT ( 'configuration controlled 3d designs of mechanical parts and assemblies' ) ;
#208 = AXIS2_PLACEMENT_3D ( 'NONE', #49, #100, #99 ) ;
#209 = VERTEX_POINT ( 'NONE', #71 ) ;
#210 = EDGE_LOOP ( 'NONE', ( #4 ) ) ;
#211 = CARTESIAN_POINT ( 'NONE',  ( 1.058299037697104623E-15, -3.712013335537155590E-17, 0.3031088913245519878 ) ) ;
#212 = AXIS2_PLACEMENT_3D ( 'NONE', #225, #158, #228 ) ;
#213 = CARTESIAN_POINT ( 'NONE',  ( 3.248163108728530778E-14, -1.139302252587989331E-15, 9.303108891324551877 ) ) ;
#214 = EDGE_LOOP ( 'NONE', ( #138 ) ) ;
#215 = PERSON_AND_ORGANIZATION_ROLE ( 'design_supplier' ) ;
#216 = EDGE_LOOP ( 'NONE', ( #173 ) ) ;
#217 = CALENDAR_DATE ( 2021, 10, 11 ) ;
#218 = DATE_AND_TIME ( #166, #84 ) ;
#219 = CYLINDRICAL_SURFACE ( 'NONE', #2, 0.7499999999999986677 ) ;
#220 = APPROVAL_ROLE ( '' ) ;
#221 = CALENDAR_DATE ( 2021, 10, 11 ) ;
#222 = CIRCLE ( 'NONE', #104, 0.5250000000000001332 ) ;
#223 = ORIENTED_EDGE ( 'NONE', *, *, #37, .T. ) ;
#224 = DESIGN_CONTEXT ( 'detailed design', #22, 'design' ) ;
#225 = CARTESIAN_POINT ( 'NONE',  ( 1.047444401652940007E-13, -3.673940397442059178E-15, 30.00000000000000000 ) ) ;
#226 = EDGE_CURVE ( 'NONE', #231, #231, #32, .T. ) ;
#227 = CIRCLE ( 'NONE', #171, 0.7499999999999998890 ) ;
#228 = DIRECTION ( 'NONE',  ( 0.0000000000000000000, 1.000000000000000000, 0.0000000000000000000 ) ) ;
#229 = DIRECTION ( 'NONE',  ( -3.491481338843133355E-15, 1.224646799147353207E-16, -1.000000000000000000 ) ) ;
#230 = FACE_OUTER_BOUND ( 'NONE', #136, .T. ) ;
#231 = VERTEX_POINT ( 'NONE', #156 ) ;
#232 = ORIENTED_EDGE ( 'NONE', *, *, #152, .T. ) ;
#233 = CC_DESIGN_PERSON_AND_ORGANIZATION_ASSIGNMENT ( #101, #179, ( #47 ) ) ;
#234 = AXIS2_PLACEMENT_3D ( 'NONE', #12, #9, #64 ) ;
#235 = APPROVAL_STATUS ( 'not_yet_approved' ) ;
#236 = ORIENTED_EDGE ( 'NONE', *, *, #243, .T. ) ;
#237 = COORDINATED_UNIVERSAL_TIME_OFFSET ( 1, 0, .AHEAD. ) ;
#238 = DIRECTION ( 'NONE',  ( -3.491481338843133355E-15, 1.224646799147353207E-16, -1.000000000000000000 ) ) ;
#239 = COORDINATED_UNIVERSAL_TIME_OFFSET ( 1, 0, .AHEAD. ) ;
#240 = DIRECTION ( 'NONE',  ( -4.275831445896958607E-31, -1.000000000000000000, -1.224646799147353207E-16 ) ) ;
#241 = COORDINATED_UNIVERSAL_TIME_OFFSET ( 1, 0, .AHEAD. ) ;
#242 = AXIS2_PLACEMENT_3D ( 'NONE', #25, #97, #114 ) ;
#243 = EDGE_CURVE ( 'NONE', #149, #149, #76, .T. ) ;
ENDSEC;
END-ISO-10303-21;
