ISO-10303-21;
HEADER;
FILE_DESCRIPTION (( 'STEP AP203' ),
    '1' );
FILE_NAME ('955392.step',
    '2021-11-10T12:11:20',
    ( '' ),
    ( '' ),
    'SwSTEP 2.0',
    'SolidWorks 2019',
    '' );
FILE_SCHEMA (( 'CONFIG_CONTROL_DESIGN' ));
ENDSEC;

DATA;
#1 = DIRECTION ( 'NONE',  ( 3.851859888774470830E-31, 1.000000000000000000, 1.084202172485504187E-16 ) ) ;
#2 = EDGE_CURVE ( 'NONE', #166, #166, #217, .T. ) ;
#3 = CALENDAR_DATE ( 2021, 10, 11 ) ;
#4 = MANIFOLD_SOLID_BREP ( 'Corps-Déplacer/Copier1[1]', #54 ) ;
#5 = EDGE_LOOP ( 'NONE', ( #52 ) ) ;
#6 = APPROVAL ( #238, 'UNSPECIFIED' ) ;
#7 = EDGE_LOOP ( 'NONE', ( #196 ) ) ;
#8 = ORIENTED_EDGE ( 'NONE', *, *, #119, .F. ) ;
#9 = ORIENTED_EDGE ( 'NONE', *, *, #119, .T. ) ;
#10 = FACE_BOUND ( 'NONE', #155, .T. ) ;
#11 = DIRECTION ( 'NONE',  ( 1.000000000000000000, 0.0000000000000000000, 0.0000000000000000000 ) ) ;
#12 = CARTESIAN_POINT ( 'NONE',  ( 1.042207179644675275E-13, -3.655570695454848748E-15, 29.84999999999999787 ) ) ;
#13 = APPLICATION_PROTOCOL_DEFINITION ( 'international standard', 'config_control_design', 1994, #144 ) ;
#14 = ADVANCED_FACE ( 'NONE', ( #84, #159 ), #91, .T. ) ;
#15 = LOCAL_TIME ( 13, 11, 20.00000000000000000, #75 ) ;
#16 = DIRECTION ( 'NONE',  ( 3.491481338843133355E-15, -1.224646799147353207E-16, 1.000000000000000000 ) ) ;
#17 = CARTESIAN_POINT ( 'NONE',  ( 3.243123589501401604E-14, 3.749399456654627598E-33, 9.288675134594811311 ) ) ;
#18 = DIRECTION ( 'NONE',  ( 0.0000000000000000000, 1.000000000000000000, 0.0000000000000000000 ) ) ;
#19 = AXIS2_PLACEMENT_3D ( 'NONE', #17, #109, #59 ) ;
#20 = DIRECTION ( 'NONE',  ( -3.491481338843133355E-15, 1.224646799147353207E-16, -1.000000000000000000 ) ) ;
#21 = CARTESIAN_POINT ( 'NONE',  ( 3.330410622972478991E-14, -0.5669872981077792584, 9.538675134594809535 ) ) ;
#22 = COORDINATED_UNIVERSAL_TIME_OFFSET ( 1, 0, .AHEAD. ) ;
#23 = LOCAL_TIME ( 13, 11, 20.00000000000000000, #195 ) ;
#24 = CC_DESIGN_PERSON_AND_ORGANIZATION_ASSIGNMENT ( #197, #172, ( #77 ) ) ;
#25 = ORIENTED_EDGE ( 'NONE', *, *, #225, .T. ) ;
#26 = PRODUCT_DEFINITION_SHAPE ( 'NONE', 'NONE',  #77 ) ;
#27 = APPROVAL_ROLE ( '' ) ;
#28 = ORIENTED_EDGE ( 'NONE', *, *, #221, .F. ) ;
#29 = CLOSED_SHELL ( 'NONE', ( #99, #198, #80 ) ) ;
#30 = PERSON ( 'UNSPECIFIED', 'UNSPECIFIED', 'UNSPECIFIED', ('UNSPECIFIED'), ('UNSPECIFIED'), ('UNSPECIFIED') ) ;
#31 = PERSON_AND_ORGANIZATION ( #30, #178 ) ;
#32 = VERTEX_POINT ( 'NONE', #200 ) ;
#33 = DIRECTION ( 'NONE',  ( 0.0000000000000000000, 1.000000000000000000, 0.0000000000000000000 ) ) ;
#34 = ADVANCED_FACE ( 'NONE', ( #10, #149 ), #110, .T. ) ;
#35 = EDGE_LOOP ( 'NONE', ( #9 ) ) ;
#36 = CIRCLE ( 'NONE', #214, 0.5000000000000000000 ) ;
#37 = DIRECTION ( 'NONE',  ( 3.491481338843133355E-15, -1.247135059052984700E-16, 1.000000000000000000 ) ) ;
#38 = FACE_OUTER_BOUND ( 'NONE', #7, .T. ) ;
#39 = AXIS2_PLACEMENT_3D ( 'NONE', #127, #16, #111 ) ;
#40 = DIRECTION ( 'NONE',  ( 0.0000000000000000000, 1.000000000000000000, 0.0000000000000000000 ) ) ;
#41 = FACE_OUTER_BOUND ( 'NONE', #103, .T. ) ;
#42 = CARTESIAN_POINT ( 'NONE',  ( 3.441086146571843510E-14, -1.229134215001483401E-15, 9.855662432702596121 ) ) ;
#43 = CIRCLE ( 'NONE', #104, 0.7499999999999986677 ) ;
#44 = EDGE_LOOP ( 'NONE', ( #143 ) ) ;
#45 = PERSON_AND_ORGANIZATION ( #30, #178 ) ;
#46 = AXIS2_PLACEMENT_3D ( 'NONE', #128, #236, #218 ) ;
#47 = APPROVAL_DATE_TIME ( #173, #188 ) ;
#48 = APPLICATION_CONTEXT ( 'configuration controlled 3d designs of mechanical parts and assemblies' ) ;
#49 = DIRECTION ( 'NONE',  ( -3.491481338843133355E-15, 1.224646799147353207E-16, -1.000000000000000000 ) ) ;
#50 = PERSON_AND_ORGANIZATION_ROLE ( 'classification_officer' ) ;
#51 = DIRECTION ( 'NONE',  ( -3.491481338843133355E-15, 1.224646799147353207E-16, -1.000000000000000000 ) ) ;
#52 = ORIENTED_EDGE ( 'NONE', *, *, #53, .F. ) ;
#53 = EDGE_CURVE ( 'NONE', #131, #131, #36, .T. ) ;
#54 = CLOSED_SHELL ( 'NONE', ( #138, #14, #105, #34, #239, #212 ) ) ;
#55 =( NAMED_UNIT ( * ) PLANE_ANGLE_UNIT ( ) SI_UNIT ( $, .RADIAN. ) );
#56 = CARTESIAN_POINT ( 'NONE',  ( 3.243123589501401604E-14, 3.749399456654627598E-33, 9.288675134594811311 ) ) ;
#57 = PLANE ( 'NONE',  #163 ) ;
#58 = DESIGN_CONTEXT ( 'detailed design', #144, 'design' ) ;
#59 = DIRECTION ( 'NONE',  ( -4.275831445896958607E-31, -1.000000000000000000, -1.224646799147353207E-16 ) ) ;
#60 = CIRCLE ( 'NONE', #141, 0.6000000000000000888 ) ;
#61 = FACE_OUTER_BOUND ( 'NONE', #232, .T. ) ;
#62 = CC_DESIGN_PERSON_AND_ORGANIZATION_ASSIGNMENT ( #140, #211, ( #136 ) ) ;
#63 = EDGE_LOOP ( 'NONE', ( #28 ) ) ;
#64 = DATE_AND_TIME ( #3, #79 ) ;
#65 = LOCAL_TIME ( 13, 11, 20.00000000000000000, #22 ) ;
#66 = APPROVAL_DATE_TIME ( #186, #6 ) ;
#67 = CC_DESIGN_PERSON_AND_ORGANIZATION_ASSIGNMENT ( #100, #50, ( #160 ) ) ;
#68 = EDGE_LOOP ( 'NONE', ( #8 ) ) ;
#69 = AXIS2_PLACEMENT_3D ( 'NONE', #154, #187, #224 ) ;
#70 = ORIENTED_EDGE ( 'NONE', *, *, #53, .T. ) ;
#71 = APPROVAL_PERSON_ORGANIZATION ( #45, #235, #118 ) ;
#72 = DIRECTION ( 'NONE',  ( -3.491481338843133355E-15, 1.224646799147353207E-16, -1.000000000000000000 ) ) ;
#73 = MANIFOLD_SOLID_BREP ( 'Corps-Déplacer/Copier1[2]', #29 ) ;
#74 = DIRECTION ( 'NONE',  ( -3.491481338843133355E-15, 1.224646799147353207E-16, -1.000000000000000000 ) ) ;
#75 = COORDINATED_UNIVERSAL_TIME_OFFSET ( 1, 0, .AHEAD. ) ;
#76 = DIRECTION ( 'NONE',  ( 0.0000000000000000000, -1.000000000000000000, 0.0000000000000000000 ) ) ;
#77 = PRODUCT_DEFINITION ( 'UNKNOWN', '', #136, #58 ) ;
#78 = CYLINDRICAL_SURFACE ( 'NONE', #69, 0.5000000000000000000 ) ;
#79 = LOCAL_TIME ( 13, 11, 20.00000000000000000, #142 ) ;
#80 = ADVANCED_FACE ( 'NONE', ( #162 ), #57, .T. ) ;
#81 = APPROVAL_STATUS ( 'not_yet_approved' ) ;
#82 = PERSON_AND_ORGANIZATION ( #30, #178 ) ;
#83 = CC_DESIGN_APPROVAL ( #235, ( #136 ) ) ;
#84 = FACE_OUTER_BOUND ( 'NONE', #68, .T. ) ;
#85 = ORIENTED_EDGE ( 'NONE', *, *, #221, .T. ) ;
#86 = AXIS2_PLACEMENT_3D ( 'NONE', #213, #51, #33 ) ;
#87 = DIRECTION ( 'NONE',  ( -3.491481338843133355E-15, 1.224646799147353207E-16, -1.000000000000000000 ) ) ;
#88 = AXIS2_PLACEMENT_3D ( 'NONE', #132, #20, #207 ) ;
#89 = CARTESIAN_POINT ( 'NONE',  ( 3.243123589501401604E-14, -1.137534627190114455E-15, 9.288675134594811311 ) ) ;
#90 = ADVANCED_BREP_SHAPE_REPRESENTATION ( '955392', ( #4, #73, #223 ), #123 ) ;
#91 = CONICAL_SURFACE ( 'NONE', #86, 0.6000000000000000888, 0.7853981633974450594 ) ;
#92 = EDGE_CURVE ( 'NONE', #121, #121, #153, .T. ) ;
#93 = CARTESIAN_POINT ( 'NONE',  ( 1.042207179644675275E-13, 0.7499999999999962252, 29.84999999999999787 ) ) ;
#94 = CIRCLE ( 'NONE', #133, 0.5000000000000001110 ) ;
#95 = PRODUCT_RELATED_PRODUCT_CATEGORY ( 'detail', '', ( #125 ) ) ;
#96 = DATE_AND_TIME ( #193, #209 ) ;
#97 = CARTESIAN_POINT ( 'NONE',  ( 3.243123589501401604E-14, -1.137534627190114455E-15, 9.288675134594811311 ) ) ;
#98 = APPROVAL_PERSON_ORGANIZATION ( #202, #6, #108 ) ;
#99 = ADVANCED_FACE ( 'NONE', ( #107 ), #179, .T. ) ;
#100 = PERSON_AND_ORGANIZATION ( #30, #178 ) ;
#101 =( LENGTH_UNIT ( ) NAMED_UNIT ( * ) SI_UNIT ( .MILLI., .METRE. ) );
#102 = ORIENTED_EDGE ( 'NONE', *, *, #225, .F. ) ;
#103 = EDGE_LOOP ( 'NONE', ( #177 ) ) ;
#104 = AXIS2_PLACEMENT_3D ( 'NONE', #42, #115, #113 ) ;
#105 = ADVANCED_FACE ( 'NONE', ( #61 ), #152, .F. ) ;
#106 = CARTESIAN_POINT ( 'NONE',  ( 0.0000000000000000000, 0.0000000000000000000, 0.0000000000000000000 ) ) ;
#107 = FACE_OUTER_BOUND ( 'NONE', #174, .T. ) ;
#108 = APPROVAL_ROLE ( '' ) ;
#109 = DIRECTION ( 'NONE',  ( 3.491481338843133355E-15, -1.224646799147353207E-16, 1.000000000000000000 ) ) ;
#110 = CONICAL_SURFACE ( 'NONE', #46, 0.8499999999999988676, 0.5235987755982942637 ) ;
#111 = DIRECTION ( 'NONE',  ( -4.554490559825206315E-31, -1.000000000000000000, -1.281975124255702555E-16 ) ) ;
#112 = FACE_OUTER_BOUND ( 'NONE', #5, .T. ) ;
#113 = DIRECTION ( 'NONE',  ( 0.0000000000000000000, -1.000000000000000000, 0.0000000000000000000 ) ) ;
#114 = AXIS2_PLACEMENT_3D ( 'NONE', #97, #49, #122 ) ;
#115 = DIRECTION ( 'NONE',  ( -3.491481338843133355E-15, 1.247135059052984700E-16, -1.000000000000000000 ) ) ;
#116 = CARTESIAN_POINT ( 'NONE',  ( 1.047444401652940007E-13, 0.5999999999999963141, 30.00000000000000000 ) ) ;
#117 = APPROVAL_PERSON_ORGANIZATION ( #82, #188, #27 ) ;
#118 = APPROVAL_ROLE ( '' ) ;
#119 = EDGE_CURVE ( 'NONE', #228, #228, #156, .T. ) ;
#120 = CALENDAR_DATE ( 2021, 10, 11 ) ;
#121 = VERTEX_POINT ( 'NONE', #21 ) ;
#122 = DIRECTION ( 'NONE',  ( 0.0000000000000000000, 1.000000000000000000, 0.0000000000000000000 ) ) ;
#123 =( GEOMETRIC_REPRESENTATION_CONTEXT ( 3 ) GLOBAL_UNCERTAINTY_ASSIGNED_CONTEXT ( ( #151 ) ) GLOBAL_UNIT_ASSIGNED_CONTEXT ( ( #101, #55, #231 ) ) REPRESENTATION_CONTEXT ( 'NONE', 'WORKASPACE' ) );
#124 = DATE_TIME_ROLE ( 'classification_date' ) ;
#125 = PRODUCT ( '955392', '955392', '', ( #241 ) ) ;
#126 = ORIENTED_EDGE ( 'NONE', *, *, #181, .T. ) ;
#127 = CARTESIAN_POINT ( 'NONE',  ( 3.491481338843133254E-12, -1.224646799147353249E-13, 1000.000000000000000 ) ) ;
#128 = CARTESIAN_POINT ( 'NONE',  ( 3.501560377297392965E-14, -1.250735227863285394E-15, 10.02886751345948468 ) ) ;
#129 = PLANE ( 'NONE',  #19 ) ;
#130 = DIRECTION ( 'NONE',  ( 4.275831445896959482E-31, 1.000000000000000000, 1.224646799147353207E-16 ) ) ;
#131 = VERTEX_POINT ( 'NONE', #191 ) ;
#132 = CARTESIAN_POINT ( 'NONE',  ( 3.243123589501401604E-14, -1.084202172485504434E-15, 9.288675134594811311 ) ) ;
#133 = AXIS2_PLACEMENT_3D ( 'NONE', #190, #169, #1 ) ;
#134 = EDGE_LOOP ( 'NONE', ( #102 ) ) ;
#135 = VERTEX_POINT ( 'NONE', #199 ) ;
#136 = PRODUCT_DEFINITION_FORMATION_WITH_SPECIFIED_SOURCE ( 'ANY', '', #125, .NOT_KNOWN. ) ;
#137 = APPROVAL_DATE_TIME ( #176, #235 ) ;
#138 = ADVANCED_FACE ( 'NONE', ( #185, #237 ), #164, .T. ) ;
#139 = EDGE_LOOP ( 'NONE', ( #85 ) ) ;
#140 = PERSON_AND_ORGANIZATION ( #30, #178 ) ;
#141 = AXIS2_PLACEMENT_3D ( 'NONE', #243, #204, #40 ) ;
#142 = COORDINATED_UNIVERSAL_TIME_OFFSET ( 1, 0, .AHEAD. ) ;
#143 = ORIENTED_EDGE ( 'NONE', *, *, #2, .F. ) ;
#144 = APPLICATION_CONTEXT ( 'configuration controlled 3d designs of mechanical parts and assemblies' ) ;
#145 = EDGE_LOOP ( 'NONE', ( #70 ) ) ;
#146 = APPLICATION_PROTOCOL_DEFINITION ( 'international standard', 'config_control_design', 1994, #48 ) ;
#147 = AXIS2_PLACEMENT_3D ( 'NONE', #150, #37, #76 ) ;
#148 = DIRECTION ( 'NONE',  ( -4.275831445896958607E-31, -1.000000000000000000, -1.224646799147353207E-16 ) ) ;
#149 = FACE_OUTER_BOUND ( 'NONE', #139, .T. ) ;
#150 = CARTESIAN_POINT ( 'NONE',  ( 3.330410622972478991E-14, -1.189601617727013410E-15, 9.538675134594809535 ) ) ;
#151 = UNCERTAINTY_MEASURE_WITH_UNIT (LENGTH_MEASURE( 1.000000000000000082E-05 ), #101, 'distance_accuracy_value', 'NONE');
#152 = PLANE ( 'NONE',  #189 ) ;
#153 = CIRCLE ( 'NONE', #147, 0.5669872981077780372 ) ;
#154 = CARTESIAN_POINT ( 'NONE',  ( 0.0000000000000000000, 0.0000000000000000000, 0.0000000000000000000 ) ) ;
#155 = EDGE_LOOP ( 'NONE', ( #216 ) ) ;
#156 = CIRCLE ( 'NONE', #168, 0.7499999999999998890 ) ;
#157 = CC_DESIGN_DATE_AND_TIME_ASSIGNMENT ( #64, #210, ( #77 ) ) ;
#158 = ORIENTED_EDGE ( 'NONE', *, *, #181, .F. ) ;
#159 = FACE_BOUND ( 'NONE', #180, .T. ) ;
#160 = SECURITY_CLASSIFICATION ( '', '', #192 ) ;
#161 = CC_DESIGN_DATE_AND_TIME_ASSIGNMENT ( #96, #124, ( #160 ) ) ;
#162 = FACE_OUTER_BOUND ( 'NONE', #44, .T. ) ;
#163 = AXIS2_PLACEMENT_3D ( 'NONE', #56, #220, #148 ) ;
#164 = CYLINDRICAL_SURFACE ( 'NONE', #175, 0.7499999999999986677 ) ;
#165 = CALENDAR_DATE ( 2021, 10, 11 ) ;
#166 = VERTEX_POINT ( 'NONE', #242 ) ;
#167 = DIRECTION ( 'NONE',  ( 4.275831445896958607E-31, 1.000000000000000000, 1.224646799147353207E-16 ) ) ;
#168 = AXIS2_PLACEMENT_3D ( 'NONE', #12, #222, #184 ) ;
#169 = DIRECTION ( 'NONE',  ( -3.491481338843133355E-15, 1.224646799147353207E-16, -1.000000000000000000 ) ) ;
#170 = VERTEX_POINT ( 'NONE', #116 ) ;
#171 = TOROIDAL_SURFACE ( 'NONE', #88, 1.000000000000000000, 0.5000000000000000000 ) ;
#172 = PERSON_AND_ORGANIZATION_ROLE ( 'creator' ) ;
#173 = DATE_AND_TIME ( #120, #65 ) ;
#174 = EDGE_LOOP ( 'NONE', ( #25 ) ) ;
#175 = AXIS2_PLACEMENT_3D ( 'NONE', #240, #74, #130 ) ;
#176 = DATE_AND_TIME ( #215, #23 ) ;
#177 = ORIENTED_EDGE ( 'NONE', *, *, #2, .T. ) ;
#178 = ORGANIZATION ( 'UNSPECIFIED', 'UNSPECIFIED', '' ) ;
#179 = CONICAL_SURFACE ( 'NONE', #39, 1732.050807568886512, 1.047197551196600074 ) ;
#180 = EDGE_LOOP ( 'NONE', ( #126 ) ) ;
#181 = EDGE_CURVE ( 'NONE', #170, #170, #60, .T. ) ;
#182 = DIRECTION ( 'NONE',  ( 0.0000000000000000000, 0.0000000000000000000, 1.000000000000000000 ) ) ;
#183 = PERSON_AND_ORGANIZATION ( #30, #178 ) ;
#184 = DIRECTION ( 'NONE',  ( 0.0000000000000000000, 1.000000000000000000, 0.0000000000000000000 ) ) ;
#185 = FACE_OUTER_BOUND ( 'NONE', #35, .T. ) ;
#186 = DATE_AND_TIME ( #165, #15 ) ;
#187 = DIRECTION ( 'NONE',  ( -3.491481338843133355E-15, 1.224646799147353207E-16, -1.000000000000000000 ) ) ;
#188 = APPROVAL ( #230, 'UNSPECIFIED' ) ;
#189 = AXIS2_PLACEMENT_3D ( 'NONE', #201, #87, #167 ) ;
#190 = CARTESIAN_POINT ( 'NONE',  ( 1.007903845425813673E-15, -3.535250795749671638E-17, 0.2886751345948113667 ) ) ;
#191 = CARTESIAN_POINT ( 'NONE',  ( 3.243123589501401604E-14, 0.4999999999999989453, 9.288675134594811311 ) ) ;
#192 = SECURITY_CLASSIFICATION_LEVEL ( 'unclassified' ) ;
#193 = CALENDAR_DATE ( 2021, 10, 11 ) ;
#194 = SHAPE_DEFINITION_REPRESENTATION ( #26, #90 ) ;
#195 = COORDINATED_UNIVERSAL_TIME_OFFSET ( 1, 0, .AHEAD. ) ;
#196 = ORIENTED_EDGE ( 'NONE', *, *, #92, .F. ) ;
#197 = PERSON_AND_ORGANIZATION ( #30, #178 ) ;
#198 = ADVANCED_FACE ( 'NONE', ( #41, #203 ), #78, .T. ) ;
#199 = CARTESIAN_POINT ( 'NONE',  ( 3.441086146571843510E-14, -0.7499999999999998890, 9.855662432702596121 ) ) ;
#200 = CARTESIAN_POINT ( 'NONE',  ( 1.007903845425813871E-15, 0.5000000000000001110, 0.2886751345948114222 ) ) ;
#201 = CARTESIAN_POINT ( 'NONE',  ( 1.047444401652940007E-13, 4.499279347985518085E-33, 30.00000000000000000 ) ) ;
#202 = PERSON_AND_ORGANIZATION ( #30, #178 ) ;
#203 = FACE_OUTER_BOUND ( 'NONE', #134, .T. ) ;
#204 = DIRECTION ( 'NONE',  ( -3.491481338843133355E-15, 1.224646799147353207E-16, -1.000000000000000000 ) ) ;
#205 = CC_DESIGN_APPROVAL ( #188, ( #160 ) ) ;
#206 = PERSON_AND_ORGANIZATION_ROLE ( 'design_owner' ) ;
#207 = DIRECTION ( 'NONE',  ( 4.275831445896958607E-31, 1.000000000000000000, 1.224646799147353207E-16 ) ) ;
#208 = CC_DESIGN_PERSON_AND_ORGANIZATION_ASSIGNMENT ( #31, #227, ( #136 ) ) ;
#209 = LOCAL_TIME ( 13, 11, 20.00000000000000000, #233 ) ;
#210 = DATE_TIME_ROLE ( 'creation_date' ) ;
#211 = PERSON_AND_ORGANIZATION_ROLE ( 'creator' ) ;
#212 = ADVANCED_FACE ( 'NONE', ( #112, #38 ), #171, .F. ) ;
#213 = CARTESIAN_POINT ( 'NONE',  ( 1.047444401652940007E-13, -3.673940397442059178E-15, 30.00000000000000000 ) ) ;
#214 = AXIS2_PLACEMENT_3D ( 'NONE', #89, #72, #18 ) ;
#215 = CALENDAR_DATE ( 2021, 10, 11 ) ;
#216 = ORIENTED_EDGE ( 'NONE', *, *, #92, .T. ) ;
#217 = CIRCLE ( 'NONE', #114, 0.5000000000000000000 ) ;
#218 = DIRECTION ( 'NONE',  ( 0.0000000000000000000, -1.000000000000000000, 0.0000000000000000000 ) ) ;
#219 = FACE_OUTER_BOUND ( 'NONE', #145, .T. ) ;
#220 = DIRECTION ( 'NONE',  ( 3.491481338843133355E-15, -1.224646799147353207E-16, 1.000000000000000000 ) ) ;
#221 = EDGE_CURVE ( 'NONE', #135, #135, #43, .T. ) ;
#222 = DIRECTION ( 'NONE',  ( -3.491481338843133355E-15, 1.224646799147353207E-16, -1.000000000000000000 ) ) ;
#223 = AXIS2_PLACEMENT_3D ( 'NONE', #106, #182, #11 ) ;
#224 = DIRECTION ( 'NONE',  ( 4.275831445896958607E-31, 1.000000000000000000, 1.224646799147353207E-16 ) ) ;
#225 = EDGE_CURVE ( 'NONE', #32, #32, #94, .T. ) ;
#226 = CC_DESIGN_APPROVAL ( #6, ( #77 ) ) ;
#227 = PERSON_AND_ORGANIZATION_ROLE ( 'design_supplier' ) ;
#228 = VERTEX_POINT ( 'NONE', #93 ) ;
#229 = CC_DESIGN_PERSON_AND_ORGANIZATION_ASSIGNMENT ( #183, #206, ( #125 ) ) ;
#230 = APPROVAL_STATUS ( 'not_yet_approved' ) ;
#231 =( NAMED_UNIT ( * ) SI_UNIT ( $, .STERADIAN. ) SOLID_ANGLE_UNIT ( ) );
#232 = EDGE_LOOP ( 'NONE', ( #158 ) ) ;
#233 = COORDINATED_UNIVERSAL_TIME_OFFSET ( 1, 0, .AHEAD. ) ;
#234 = CC_DESIGN_SECURITY_CLASSIFICATION ( #160, ( #136 ) ) ;
#235 = APPROVAL ( #81, 'UNSPECIFIED' ) ;
#236 = DIRECTION ( 'NONE',  ( 3.491481338843133355E-15, -1.247135059052984700E-16, 1.000000000000000000 ) ) ;
#237 = FACE_OUTER_BOUND ( 'NONE', #63, .T. ) ;
#238 = APPROVAL_STATUS ( 'not_yet_approved' ) ;
#239 = ADVANCED_FACE ( 'NONE', ( #219 ), #129, .F. ) ;
#240 = CARTESIAN_POINT ( 'NONE',  ( 0.0000000000000000000, 0.0000000000000000000, 0.0000000000000000000 ) ) ;
#241 = MECHANICAL_CONTEXT ( 'NONE', #48, 'mechanical' ) ;
#242 = CARTESIAN_POINT ( 'NONE',  ( 3.243123589501401604E-14, 0.4999999999999989453, 9.288675134594811311 ) ) ;
#243 = CARTESIAN_POINT ( 'NONE',  ( 1.047444401652940007E-13, -3.673940397442059178E-15, 30.00000000000000000 ) ) ;
ENDSEC;
END-ISO-10303-21;
