ISO-10303-21;
HEADER;
FILE_DESCRIPTION (( 'STEP AP203' ),
    '1' );
FILE_NAME ('955391.step',
    '2021-11-10T12:11:19',
    ( '' ),
    ( '' ),
    'SwSTEP 2.0',
    'SolidWorks 2019',
    '' );
FILE_SCHEMA (( 'CONFIG_CONTROL_DESIGN' ));
ENDSEC;

DATA;
#1 = EDGE_LOOP ( 'NONE', ( #209 ) ) ;
#2 = EDGE_LOOP ( 'NONE', ( #147 ) ) ;
#3 = CC_DESIGN_SECURITY_CLASSIFICATION ( #96, ( #199 ) ) ;
#4 = CARTESIAN_POINT ( 'NONE',  ( 2.574702615894076777E-14, 3.561929483821898134E-33, 7.374241377865070390 ) ) ;
#5 = EDGE_CURVE ( 'NONE', #30, #30, #17, .T. ) ;
#6 = CARTESIAN_POINT ( 'NONE',  ( 2.661989649365154480E-14, -0.5419872981077792362, 7.624241377865067726 ) ) ;
#7 = CARTESIAN_POINT ( 'NONE',  ( 0.0000000000000000000, 0.0000000000000000000, 0.0000000000000000000 ) ) ;
#8 = ADVANCED_FACE ( 'NONE', ( #212 ), #171, .F. ) ;
#9 = CARTESIAN_POINT ( 'NONE',  ( 1.042207179644675275E-13, -3.655570695454848748E-15, 29.84999999999999787 ) ) ;
#10 = PLANE ( 'NONE',  #79 ) ;
#11 = AXIS2_PLACEMENT_3D ( 'NONE', #94, #58, #139 ) ;
#12 = AXIS2_PLACEMENT_3D ( 'NONE', #150, #148, #13 ) ;
#13 = DIRECTION ( 'NONE',  ( 1.000000000000000000, 0.0000000000000000000, 0.0000000000000000000 ) ) ;
#14 = ORIENTED_EDGE ( 'NONE', *, *, #141, .T. ) ;
#15 = COORDINATED_UNIVERSAL_TIME_OFFSET ( 1, 0, .AHEAD. ) ;
#16 = ADVANCED_FACE ( 'NONE', ( #39, #156 ), #34, .T. ) ;
#17 = CIRCLE ( 'NONE', #11, 0.4749999999999999223 ) ;
#18 = PERSON_AND_ORGANIZATION ( #140, #63 ) ;
#19 = ORIENTED_EDGE ( 'NONE', *, *, #56, .T. ) ;
#20 = DIRECTION ( 'NONE',  ( -3.491481338843133355E-15, 1.224646799147353207E-16, -1.000000000000000000 ) ) ;
#21 = AXIS2_PLACEMENT_3D ( 'NONE', #9, #25, #122 ) ;
#22 = CC_DESIGN_PERSON_AND_ORGANIZATION_ASSIGNMENT ( #182, #166, ( #96 ) ) ;
#23 = PLANE ( 'NONE',  #204 ) ;
#24 = CC_DESIGN_APPROVAL ( #45, ( #96 ) ) ;
#25 = DIRECTION ( 'NONE',  ( -3.491481338843133355E-15, 1.224646799147353207E-16, -1.000000000000000000 ) ) ;
#26 = VERTEX_POINT ( 'NONE', #120 ) ;
#27 = DIRECTION ( 'NONE',  ( -3.491481338843133355E-15, 1.224646799147353207E-16, -1.000000000000000000 ) ) ;
#28 = AXIS2_PLACEMENT_3D ( 'NONE', #7, #142, #177 ) ;
#29 = FACE_OUTER_BOUND ( 'NONE', #91, .T. ) ;
#30 = VERTEX_POINT ( 'NONE', #229 ) ;
#31 = PERSON_AND_ORGANIZATION_ROLE ( 'design_supplier' ) ;
#32 = EDGE_LOOP ( 'NONE', ( #183 ) ) ;
#33 = DATE_TIME_ROLE ( 'classification_date' ) ;
#34 = CONICAL_SURFACE ( 'NONE', #138, 0.8499999999999985345, 0.5235987755982934866 ) ;
#35 = APPROVAL_PERSON_ORGANIZATION ( #149, #45, #48 ) ;
#36 = MECHANICAL_CONTEXT ( 'NONE', #131, 'mechanical' ) ;
#37 = CARTESIAN_POINT ( 'NONE',  ( 2.574702615894076777E-14, -9.030841099542426392E-16, 7.374241377865070390 ) ) ;
#38 = DIRECTION ( 'NONE',  ( 0.0000000000000000000, 1.000000000000000000, 0.0000000000000000000 ) ) ;
#39 = FACE_BOUND ( 'NONE', #32, .T. ) ;
#40 = VERTEX_POINT ( 'NONE', #159 ) ;
#41 = CARTESIAN_POINT ( 'NONE',  ( 2.574702615894076777E-14, 0.4749999999999990896, 7.374241377865070390 ) ) ;
#42 = DIRECTION ( 'NONE',  ( -4.554490559825206315E-31, -1.000000000000000000, -1.281975124255702555E-16 ) ) ;
#43 = CONICAL_SURFACE ( 'NONE', #61, 0.6000000000000000888, 0.7853981633974450594 ) ;
#44 = FACE_OUTER_BOUND ( 'NONE', #1, .T. ) ;
#45 = APPROVAL ( #223, 'UNSPECIFIED' ) ;
#46 = APPROVAL_DATE_TIME ( #222, #230 ) ;
#47 = EDGE_LOOP ( 'NONE', ( #234 ) ) ;
#48 = APPROVAL_ROLE ( '' ) ;
#49 = APPROVAL_DATE_TIME ( #224, #45 ) ;
#50 = CC_DESIGN_APPROVAL ( #230, ( #199 ) ) ;
#51 = DATE_AND_TIME ( #152, #169 ) ;
#52 = DATE_TIME_ROLE ( 'creation_date' ) ;
#53 = EDGE_LOOP ( 'NONE', ( #190 ) ) ;
#54 = CC_DESIGN_PERSON_AND_ORGANIZATION_ASSIGNMENT ( #18, #207, ( #201 ) ) ;
#55 = CARTESIAN_POINT ( 'NONE',  ( 1.047444401652940007E-13, -3.673940397442059178E-15, 30.00000000000000000 ) ) ;
#56 = EDGE_CURVE ( 'NONE', #40, #40, #62, .T. ) ;
#57 = AXIS2_PLACEMENT_3D ( 'NONE', #178, #194, #83 ) ;
#58 = DIRECTION ( 'NONE',  ( -3.491481338843133355E-15, 1.224646799147353207E-16, -1.000000000000000000 ) ) ;
#59 = CARTESIAN_POINT ( 'NONE',  ( 3.491481338843133254E-12, -1.224646799147353249E-13, 1000.000000000000000 ) ) ;
#60 = CARTESIAN_POINT ( 'NONE',  ( 1.042207179644675275E-13, 0.7499999999999962252, 29.84999999999999787 ) ) ;
#61 = AXIS2_PLACEMENT_3D ( 'NONE', #55, #211, #38 ) ;
#62 = CIRCLE ( 'NONE', #73, 0.4749999999999999778 ) ;
#63 = ORGANIZATION ( 'UNSPECIFIED', 'UNSPECIFIED', '' ) ;
#64 = DIRECTION ( 'NONE',  ( -3.491481338843133355E-15, 1.224646799147353207E-16, -1.000000000000000000 ) ) ;
#65 = FACE_OUTER_BOUND ( 'NONE', #2, .T. ) ;
#66 = UNCERTAINTY_MEASURE_WITH_UNIT (LENGTH_MEASURE( 1.000000000000000082E-05 ), #197, 'distance_accuracy_value', 'NONE');
#67 = AXIS2_PLACEMENT_3D ( 'NONE', #137, #20, #76 ) ;
#68 = COORDINATED_UNIVERSAL_TIME_OFFSET ( 1, 0, .AHEAD. ) ;
#69 = DATE_AND_TIME ( #238, #187 ) ;
#70 = EDGE_LOOP ( 'NONE', ( #125 ) ) ;
#71 =( NAMED_UNIT ( * ) SI_UNIT ( $, .STERADIAN. ) SOLID_ANGLE_UNIT ( ) );
#72 = APPROVAL_STATUS ( 'not_yet_approved' ) ;
#73 = AXIS2_PLACEMENT_3D ( 'NONE', #37, #115, #191 ) ;
#74 = ADVANCED_FACE ( 'NONE', ( #118 ), #23, .T. ) ;
#75 = MANIFOLD_SOLID_BREP ( 'Corps-Déplacer/Copier1[2]', #175 ) ;
#76 = DIRECTION ( 'NONE',  ( 4.275831445896958607E-31, 1.000000000000000000, 1.224646799147353207E-16 ) ) ;
#77 = FACE_OUTER_BOUND ( 'NONE', #53, .T. ) ;
#78 = ORIENTED_EDGE ( 'NONE', *, *, #205, .T. ) ;
#79 = AXIS2_PLACEMENT_3D ( 'NONE', #213, #82, #81 ) ;
#80 = DIRECTION ( 'NONE',  ( 3.491481338843133355E-15, -1.247135059052984700E-16, 1.000000000000000000 ) ) ;
#81 = DIRECTION ( 'NONE',  ( -4.275831445896958607E-31, -1.000000000000000000, -1.224646799147353207E-16 ) ) ;
#82 = DIRECTION ( 'NONE',  ( 3.491481338843133355E-15, -1.224646799147353207E-16, 1.000000000000000000 ) ) ;
#83 = DIRECTION ( 'NONE',  ( 0.0000000000000000000, -1.000000000000000000, 0.0000000000000000000 ) ) ;
#84 = DIRECTION ( 'NONE',  ( 4.275831445896958607E-31, 1.000000000000000000, 1.224646799147353207E-16 ) ) ;
#85 = EDGE_LOOP ( 'NONE', ( #226 ) ) ;
#86 = CARTESIAN_POINT ( 'NONE',  ( 2.574702615894076777E-14, -8.673617379884035472E-16, 7.374241377865070390 ) ) ;
#87 = APPROVAL_ROLE ( '' ) ;
#88 = COORDINATED_UNIVERSAL_TIME_OFFSET ( 1, 0, .AHEAD. ) ;
#89 = ADVANCED_FACE ( 'NONE', ( #77, #157 ), #43, .T. ) ;
#90 = PERSON_AND_ORGANIZATION ( #140, #63 ) ;
#91 = EDGE_LOOP ( 'NONE', ( #114 ) ) ;
#92 = CALENDAR_DATE ( 2021, 10, 11 ) ;
#93 = LOCAL_TIME ( 13, 11, 19.00000000000000000, #165 ) ;
#94 = CARTESIAN_POINT ( 'NONE',  ( 9.575086531545229207E-16, -3.358488255962187070E-17, 0.2742413778650707457 ) ) ;
#95 = EDGE_LOOP ( 'NONE', ( #184 ) ) ;
#96 = SECURITY_CLASSIFICATION ( '', '', #107 ) ;
#97 = DIRECTION ( 'NONE',  ( 0.0000000000000000000, -1.000000000000000000, 0.0000000000000000000 ) ) ;
#98 = DIRECTION ( 'NONE',  ( 3.491481338843133355E-15, -1.247135059052984700E-16, 1.000000000000000000 ) ) ;
#99 = DIRECTION ( 'NONE',  ( 3.491481338843133355E-15, -1.224646799147353207E-16, 1.000000000000000000 ) ) ;
#100 = AXIS2_PLACEMENT_3D ( 'NONE', #104, #143, #198 ) ;
#101 = CARTESIAN_POINT ( 'NONE',  ( 0.0000000000000000000, 0.0000000000000000000, 0.0000000000000000000 ) ) ;
#102 = PRODUCT_RELATED_PRODUCT_CATEGORY ( 'detail', '', ( #201 ) ) ;
#103 = CYLINDRICAL_SURFACE ( 'NONE', #28, 0.7499999999999984457 ) ;
#104 = CARTESIAN_POINT ( 'NONE',  ( 1.047444401652940007E-13, -3.673940397442059178E-15, 30.00000000000000000 ) ) ;
#105 = ORIENTED_EDGE ( 'NONE', *, *, #106, .F. ) ;
#106 = EDGE_CURVE ( 'NONE', #176, #176, #203, .T. ) ;
#107 = SECURITY_CLASSIFICATION_LEVEL ( 'unclassified' ) ;
#108 = APPROVAL ( #72, 'UNSPECIFIED' ) ;
#109 =( NAMED_UNIT ( * ) PLANE_ANGLE_UNIT ( ) SI_UNIT ( $, .RADIAN. ) );
#110 = PERSON_AND_ORGANIZATION ( #140, #63 ) ;
#111 = PERSON_AND_ORGANIZATION ( #140, #63 ) ;
#112 = CC_DESIGN_DATE_AND_TIME_ASSIGNMENT ( #153, #52, ( #219 ) ) ;
#113 = APPROVAL_PERSON_ORGANIZATION ( #90, #108, #243 ) ;
#114 = ORIENTED_EDGE ( 'NONE', *, *, #56, .F. ) ;
#115 = DIRECTION ( 'NONE',  ( -3.491481338843133355E-15, 1.224646799147353207E-16, -1.000000000000000000 ) ) ;
#116 = AXIS2_PLACEMENT_3D ( 'NONE', #59, #119, #42 ) ;
#117 = CARTESIAN_POINT ( 'NONE',  ( 2.661989649365154480E-14, -9.508458721017960436E-16, 7.624241377865067726 ) ) ;
#118 = FACE_OUTER_BOUND ( 'NONE', #47, .T. ) ;
#119 = DIRECTION ( 'NONE',  ( 3.491481338843133355E-15, -1.224646799147353207E-16, 1.000000000000000000 ) ) ;
#120 = CARTESIAN_POINT ( 'NONE',  ( 1.047444401652940007E-13, 0.5999999999999963141, 30.00000000000000000 ) ) ;
#121 = FACE_OUTER_BOUND ( 'NONE', #132, .T. ) ;
#122 = DIRECTION ( 'NONE',  ( 0.0000000000000000000, 1.000000000000000000, 0.0000000000000000000 ) ) ;
#123 = DIRECTION ( 'NONE',  ( 4.275831445896958607E-31, 1.000000000000000000, 1.224646799147353207E-16 ) ) ;
#124 = PERSON_AND_ORGANIZATION ( #140, #63 ) ;
#125 = ORIENTED_EDGE ( 'NONE', *, *, #163, .T. ) ;
#126 = COORDINATED_UNIVERSAL_TIME_OFFSET ( 1, 0, .AHEAD. ) ;
#127 = CIRCLE ( 'NONE', #100, 0.6000000000000000888 ) ;
#128 = SHAPE_DEFINITION_REPRESENTATION ( #239, #235 ) ;
#129 = CC_DESIGN_PERSON_AND_ORGANIZATION_ASSIGNMENT ( #202, #31, ( #199 ) ) ;
#130 = APPLICATION_PROTOCOL_DEFINITION ( 'international standard', 'config_control_design', 1994, #131 ) ;
#131 = APPLICATION_CONTEXT ( 'configuration controlled 3d designs of mechanical parts and assemblies' ) ;
#132 = EDGE_LOOP ( 'NONE', ( #14 ) ) ;
#133 = EDGE_LOOP ( 'NONE', ( #105 ) ) ;
#134 = CC_DESIGN_APPROVAL ( #108, ( #219 ) ) ;
#135 = EDGE_LOOP ( 'NONE', ( #221 ) ) ;
#136 = ADVANCED_FACE ( 'NONE', ( #44 ), #225, .T. ) ;
#137 = CARTESIAN_POINT ( 'NONE',  ( 1.047444401652940007E-13, 4.499279347985518085E-33, 30.00000000000000000 ) ) ;
#138 = AXIS2_PLACEMENT_3D ( 'NONE', #193, #80, #97 ) ;
#139 = DIRECTION ( 'NONE',  ( 4.054589356604707566E-31, 1.000000000000000000, 1.141265444721583757E-16 ) ) ;
#140 = PERSON ( 'UNSPECIFIED', 'UNSPECIFIED', 'UNSPECIFIED', ('UNSPECIFIED'), ('UNSPECIFIED'), ('UNSPECIFIED') ) ;
#141 = EDGE_CURVE ( 'NONE', #158, #158, #186, .T. ) ;
#142 = DIRECTION ( 'NONE',  ( -3.491481338843133355E-15, 1.224646799147353207E-16, -1.000000000000000000 ) ) ;
#143 = DIRECTION ( 'NONE',  ( -3.491481338843133355E-15, 1.224646799147353207E-16, -1.000000000000000000 ) ) ;
#144 = LOCAL_TIME ( 13, 11, 19.00000000000000000, #15 ) ;
#145 = FACE_OUTER_BOUND ( 'NONE', #85, .T. ) ;
#146 = FACE_OUTER_BOUND ( 'NONE', #70, .T. ) ;
#147 = ORIENTED_EDGE ( 'NONE', *, *, #5, .F. ) ;
#148 = DIRECTION ( 'NONE',  ( 0.0000000000000000000, 0.0000000000000000000, 1.000000000000000000 ) ) ;
#149 = PERSON_AND_ORGANIZATION ( #140, #63 ) ;
#150 = CARTESIAN_POINT ( 'NONE',  ( 0.0000000000000000000, 0.0000000000000000000, 0.0000000000000000000 ) ) ;
#151 = AXIS2_PLACEMENT_3D ( 'NONE', #86, #27, #84 ) ;
#152 = CALENDAR_DATE ( 2021, 10, 11 ) ;
#153 = DATE_AND_TIME ( #92, #144 ) ;
#154 = APPLICATION_CONTEXT ( 'configuration controlled 3d designs of mechanical parts and assemblies' ) ;
#155 = EDGE_LOOP ( 'NONE', ( #19 ) ) ;
#156 = FACE_OUTER_BOUND ( 'NONE', #227, .T. ) ;
#157 = FACE_BOUND ( 'NONE', #135, .T. ) ;
#158 = VERTEX_POINT ( 'NONE', #60 ) ;
#159 = CARTESIAN_POINT ( 'NONE',  ( 2.574702615894076777E-14, 0.4749999999999990896, 7.374241377865070390 ) ) ;
#160 = TOROIDAL_SURFACE ( 'NONE', #151, 0.9749999999999999778, 0.5000000000000002220 ) ;
#161 = APPROVAL_PERSON_ORGANIZATION ( #111, #230, #87 ) ;
#162 = DESIGN_CONTEXT ( 'detailed design', #154, 'design' ) ;
#163 = EDGE_CURVE ( 'NONE', #215, #215, #232, .T. ) ;
#164 = DIRECTION ( 'NONE',  ( 0.0000000000000000000, 1.000000000000000000, 0.0000000000000000000 ) ) ;
#165 = COORDINATED_UNIVERSAL_TIME_OFFSET ( 1, 0, .AHEAD. ) ;
#166 = PERSON_AND_ORGANIZATION_ROLE ( 'classification_officer' ) ;
#167 = CALENDAR_DATE ( 2021, 10, 11 ) ;
#168 = CLOSED_SHELL ( 'NONE', ( #196, #89, #8, #16, #208, #192 ) ) ;
#169 = LOCAL_TIME ( 13, 11, 19.00000000000000000, #68 ) ;
#170 = APPLICATION_PROTOCOL_DEFINITION ( 'international standard', 'config_control_design', 1994, #154 ) ;
#171 = PLANE ( 'NONE',  #67 ) ;
#172 = LOCAL_TIME ( 13, 11, 19.00000000000000000, #126 ) ;
#173 = DIRECTION ( 'NONE',  ( -4.275831445896958607E-31, -1.000000000000000000, -1.224646799147353207E-16 ) ) ;
#174 = CC_DESIGN_PERSON_AND_ORGANIZATION_ASSIGNMENT ( #124, #241, ( #199 ) ) ;
#175 = CLOSED_SHELL ( 'NONE', ( #136, #240, #74 ) ) ;
#176 = VERTEX_POINT ( 'NONE', #6 ) ;
#177 = DIRECTION ( 'NONE',  ( 4.275831445896958607E-31, 1.000000000000000000, 1.224646799147353454E-16 ) ) ;
#178 = CARTESIAN_POINT ( 'NONE',  ( 2.787783730645905889E-14, -9.957787225917167302E-16, 7.984529946162076008 ) ) ;
#179 = DIRECTION ( 'NONE',  ( 0.0000000000000000000, -1.000000000000000000, 0.0000000000000000000 ) ) ;
#180 = DIRECTION ( 'NONE',  ( -3.491481338843133355E-15, 1.224646799147353207E-16, -1.000000000000000000 ) ) ;
#181 = CC_DESIGN_DATE_AND_TIME_ASSIGNMENT ( #69, #33, ( #96 ) ) ;
#182 = PERSON_AND_ORGANIZATION ( #140, #63 ) ;
#183 = ORIENTED_EDGE ( 'NONE', *, *, #106, .T. ) ;
#184 = ORIENTED_EDGE ( 'NONE', *, *, #189, .F. ) ;
#185 = PERSON_AND_ORGANIZATION_ROLE ( 'creator' ) ;
#186 = CIRCLE ( 'NONE', #21, 0.7499999999999998890 ) ;
#187 = LOCAL_TIME ( 13, 11, 19.00000000000000000, #88 ) ;
#188 = APPROVAL_STATUS ( 'not_yet_approved' ) ;
#189 = EDGE_CURVE ( 'NONE', #26, #26, #127, .T. ) ;
#190 = ORIENTED_EDGE ( 'NONE', *, *, #141, .F. ) ;
#191 = DIRECTION ( 'NONE',  ( 0.0000000000000000000, 1.000000000000000000, 0.0000000000000000000 ) ) ;
#192 = ADVANCED_FACE ( 'NONE', ( #29, #200 ), #160, .F. ) ;
#193 = CARTESIAN_POINT ( 'NONE',  ( 2.848257961371455344E-14, -1.017379735453518723E-15, 8.157735026918967236 ) ) ;
#194 = DIRECTION ( 'NONE',  ( -3.491481338843133355E-15, 1.247135059052984700E-16, -1.000000000000000000 ) ) ;
#195 = VERTEX_POINT ( 'NONE', #233 ) ;
#196 = ADVANCED_FACE ( 'NONE', ( #121, #145 ), #103, .T. ) ;
#197 =( LENGTH_UNIT ( ) NAMED_UNIT ( * ) SI_UNIT ( .MILLI., .METRE. ) );
#198 = DIRECTION ( 'NONE',  ( 0.0000000000000000000, 1.000000000000000000, 0.0000000000000000000 ) ) ;
#199 = PRODUCT_DEFINITION_FORMATION_WITH_SPECIFIED_SOURCE ( 'ANY', '', #201, .NOT_KNOWN. ) ;
#200 = FACE_OUTER_BOUND ( 'NONE', #133, .T. ) ;
#201 = PRODUCT ( '955391', '955391', '', ( #36 ) ) ;
#202 = PERSON_AND_ORGANIZATION ( #140, #63 ) ;
#203 = CIRCLE ( 'NONE', #216, 0.5419872981077782370 ) ;
#204 = AXIS2_PLACEMENT_3D ( 'NONE', #4, #99, #173 ) ;
#205 = EDGE_CURVE ( 'NONE', #195, #195, #242, .T. ) ;
#206 = APPROVAL_DATE_TIME ( #51, #108 ) ;
#207 = PERSON_AND_ORGANIZATION_ROLE ( 'design_owner' ) ;
#208 = ADVANCED_FACE ( 'NONE', ( #218 ), #10, .F. ) ;
#209 = ORIENTED_EDGE ( 'NONE', *, *, #5, .T. ) ;
#210 = AXIS2_PLACEMENT_3D ( 'NONE', #231, #180, #164 ) ;
#211 = DIRECTION ( 'NONE',  ( -3.491481338843133355E-15, 1.224646799147353207E-16, -1.000000000000000000 ) ) ;
#212 = FACE_OUTER_BOUND ( 'NONE', #95, .T. ) ;
#213 = CARTESIAN_POINT ( 'NONE',  ( 2.574702615894076777E-14, 3.561929483821898134E-33, 7.374241377865070390 ) ) ;
#214 = CC_DESIGN_PERSON_AND_ORGANIZATION_ASSIGNMENT ( #110, #185, ( #219 ) ) ;
#215 = VERTEX_POINT ( 'NONE', #41 ) ;
#216 = AXIS2_PLACEMENT_3D ( 'NONE', #117, #98, #179 ) ;
#217 =( GEOMETRIC_REPRESENTATION_CONTEXT ( 3 ) GLOBAL_UNCERTAINTY_ASSIGNED_CONTEXT ( ( #66 ) ) GLOBAL_UNIT_ASSIGNED_CONTEXT ( ( #197, #109, #71 ) ) REPRESENTATION_CONTEXT ( 'NONE', 'WORKASPACE' ) );
#218 = FACE_OUTER_BOUND ( 'NONE', #155, .T. ) ;
#219 = PRODUCT_DEFINITION ( 'UNKNOWN', '', #199, #162 ) ;
#220 = CYLINDRICAL_SURFACE ( 'NONE', #237, 0.4749999999999999223 ) ;
#221 = ORIENTED_EDGE ( 'NONE', *, *, #189, .T. ) ;
#222 = DATE_AND_TIME ( #236, #93 ) ;
#223 = APPROVAL_STATUS ( 'not_yet_approved' ) ;
#224 = DATE_AND_TIME ( #167, #172 ) ;
#225 = CONICAL_SURFACE ( 'NONE', #116, 1732.050807568886512, 1.047197551196600074 ) ;
#226 = ORIENTED_EDGE ( 'NONE', *, *, #205, .F. ) ;
#227 = EDGE_LOOP ( 'NONE', ( #78 ) ) ;
#228 = MANIFOLD_SOLID_BREP ( 'Corps-Déplacer/Copier1[1]', #168 ) ;
#229 = CARTESIAN_POINT ( 'NONE',  ( 9.575086531545231179E-16, 0.4749999999999998668, 0.2742413778650708012 ) ) ;
#230 = APPROVAL ( #188, 'UNSPECIFIED' ) ;
#231 = CARTESIAN_POINT ( 'NONE',  ( 2.574702615894076777E-14, -9.030841099542426392E-16, 7.374241377865070390 ) ) ;
#232 = CIRCLE ( 'NONE', #210, 0.4749999999999999778 ) ;
#233 = CARTESIAN_POINT ( 'NONE',  ( 2.787783730645905889E-14, -0.7499999999999994449, 7.984529946162076008 ) ) ;
#234 = ORIENTED_EDGE ( 'NONE', *, *, #163, .F. ) ;
#235 = ADVANCED_BREP_SHAPE_REPRESENTATION ( '955391', ( #228, #75, #12 ), #217 ) ;
#236 = CALENDAR_DATE ( 2021, 10, 11 ) ;
#237 = AXIS2_PLACEMENT_3D ( 'NONE', #101, #64, #123 ) ;
#238 = CALENDAR_DATE ( 2021, 10, 11 ) ;
#239 = PRODUCT_DEFINITION_SHAPE ( 'NONE', 'NONE',  #219 ) ;
#240 = ADVANCED_FACE ( 'NONE', ( #146, #65 ), #220, .T. ) ;
#241 = PERSON_AND_ORGANIZATION_ROLE ( 'creator' ) ;
#242 = CIRCLE ( 'NONE', #57, 0.7499999999999984457 ) ;
#243 = APPROVAL_ROLE ( '' ) ;
ENDSEC;
END-ISO-10303-21;
