ISO-10303-21;
HEADER;
FILE_DESCRIPTION (( 'STEP AP203' ),
    '1' );
FILE_NAME ('955390.step',
    '2021-11-10T12:11:19',
    ( '' ),
    ( '' ),
    'SwSTEP 2.0',
    'SolidWorks 2019',
    '' );
FILE_SCHEMA (( 'CONFIG_CONTROL_DESIGN' ));
ENDSEC;

DATA;
#1 = VERTEX_POINT ( 'NONE', #5 ) ;
#2 = PRODUCT_DEFINITION_SHAPE ( 'NONE', 'NONE',  #47 ) ;
#3 = DIRECTION ( 'NONE',  ( -4.275831445896958607E-31, -1.000000000000000000, -1.224646799147353207E-16 ) ) ;
#4 = CC_DESIGN_DATE_AND_TIME_ASSIGNMENT ( #128, #205, ( #47 ) ) ;
#5 = CARTESIAN_POINT ( 'NONE',  ( 2.569663096666947919E-14, 0.4499999999999990119, 7.359807621135329825 ) ) ;
#6 = EDGE_LOOP ( 'NONE', ( #42 ) ) ;
#7 = CALENDAR_DATE ( 2021, 10, 11 ) ;
#8 = AXIS2_PLACEMENT_3D ( 'NONE', #90, #119, #55 ) ;
#9 = AXIS2_PLACEMENT_3D ( 'NONE', #217, #35, #180 ) ;
#10 = DIRECTION ( 'NONE',  ( 0.0000000000000000000, 1.000000000000000000, 0.0000000000000000000 ) ) ;
#11 = FACE_OUTER_BOUND ( 'NONE', #6, .T. ) ;
#12 = CIRCLE ( 'NONE', #9, 0.7499999999999985567 ) ;
#13 = CARTESIAN_POINT ( 'NONE',  ( 9.071134608832321680E-16, -3.181725716174703735E-17, 0.2598076211353302356 ) ) ;
#14 = CARTESIAN_POINT ( 'NONE',  ( 1.047444401652940007E-13, 0.5999999999999963141, 30.00000000000000000 ) ) ;
#15 = EDGE_CURVE ( 'NONE', #49, #49, #84, .T. ) ;
#16 = DIRECTION ( 'NONE',  ( 0.0000000000000000000, 1.000000000000000000, 0.0000000000000000000 ) ) ;
#17 = EDGE_LOOP ( 'NONE', ( #81 ) ) ;
#18 = DIRECTION ( 'NONE',  ( -3.491481338843133355E-15, 1.224646799147353207E-16, -1.000000000000000000 ) ) ;
#19 = CARTESIAN_POINT ( 'NONE',  ( 1.042207179644675275E-13, 0.7499999999999962252, 29.84999999999999787 ) ) ;
#20 = CARTESIAN_POINT ( 'NONE',  ( 2.569663096666947919E-14, -9.013164845563677627E-16, 7.359807621135329825 ) ) ;
#21 = PERSON_AND_ORGANIZATION ( #134, #33 ) ;
#22 = PERSON_AND_ORGANIZATION ( #134, #33 ) ;
#23 =( NAMED_UNIT ( * ) PLANE_ANGLE_UNIT ( ) SI_UNIT ( $, .RADIAN. ) );
#24 = DIRECTION ( 'NONE',  ( 3.491481338843133355E-15, -1.224646799147353207E-16, 1.000000000000000000 ) ) ;
#25 = DIRECTION ( 'NONE',  ( 0.0000000000000000000, 0.0000000000000000000, 1.000000000000000000 ) ) ;
#26 = CALENDAR_DATE ( 2021, 10, 11 ) ;
#27 = ORIENTED_EDGE ( 'NONE', *, *, #106, .F. ) ;
#28 = CARTESIAN_POINT ( 'NONE',  ( 2.858336999825713692E-14, -1.020979904263819121E-15, 8.186602540378448367 ) ) ;
#29 = CC_DESIGN_APPROVAL ( #192, ( #170 ) ) ;
#30 = CC_DESIGN_PERSON_AND_ORGANIZATION_ASSIGNMENT ( #183, #135, ( #170 ) ) ;
#31 = ADVANCED_FACE ( 'NONE', ( #174 ), #164, .T. ) ;
#32 = AXIS2_PLACEMENT_3D ( 'NONE', #147, #93, #184 ) ;
#33 = ORGANIZATION ( 'UNSPECIFIED', 'UNSPECIFIED', '' ) ;
#34 = CALENDAR_DATE ( 2021, 10, 11 ) ;
#35 = DIRECTION ( 'NONE',  ( -3.491481338843133355E-15, 1.247135059052984700E-16, -1.000000000000000000 ) ) ;
#36 = ORIENTED_EDGE ( 'NONE', *, *, #15, .F. ) ;
#37 = PERSON_AND_ORGANIZATION ( #134, #33 ) ;
#38 = PLANE ( 'NONE',  #215 ) ;
#39 = CC_DESIGN_PERSON_AND_ORGANIZATION_ASSIGNMENT ( #141, #97, ( #146 ) ) ;
#40 = LOCAL_TIME ( 13, 11, 19.00000000000000000, #92 ) ;
#41 = VERTEX_POINT ( 'NONE', #53 ) ;
#42 = ORIENTED_EDGE ( 'NONE', *, *, #156, .F. ) ;
#43 =( GEOMETRIC_REPRESENTATION_CONTEXT ( 3 ) GLOBAL_UNCERTAINTY_ASSIGNED_CONTEXT ( ( #153 ) ) GLOBAL_UNIT_ASSIGNED_CONTEXT ( ( #160, #23, #144 ) ) REPRESENTATION_CONTEXT ( 'NONE', 'WORKASPACE' ) );
#44 = CC_DESIGN_PERSON_AND_ORGANIZATION_ASSIGNMENT ( #37, #140, ( #206 ) ) ;
#45 = CYLINDRICAL_SURFACE ( 'NONE', #99, 0.4500000000000000111 ) ;
#46 = DIRECTION ( 'NONE',  ( -3.491481338843133355E-15, 1.224646799147353207E-16, -1.000000000000000000 ) ) ;
#47 = PRODUCT_DEFINITION ( 'UNKNOWN', '', #206, #70 ) ;
#48 = CARTESIAN_POINT ( 'NONE',  ( 2.569663096666947919E-14, -8.673617379884035472E-16, 7.359807621135329825 ) ) ;
#49 = VERTEX_POINT ( 'NONE', #56 ) ;
#50 = DIRECTION ( 'NONE',  ( 0.0000000000000000000, -1.000000000000000000, 0.0000000000000000000 ) ) ;
#51 = FACE_OUTER_BOUND ( 'NONE', #179, .T. ) ;
#52 = AXIS2_PLACEMENT_3D ( 'NONE', #172, #62, #10 ) ;
#53 = CARTESIAN_POINT ( 'NONE',  ( 2.569663096666947919E-14, 0.4499999999999990119, 7.359807621135329825 ) ) ;
#54 = DIRECTION ( 'NONE',  ( 4.275831445896958607E-31, 1.000000000000000000, 1.224646799147353207E-16 ) ) ;
#55 = DIRECTION ( 'NONE',  ( -4.275831445896958607E-31, -1.000000000000000000, -1.224646799147353207E-16 ) ) ;
#56 = CARTESIAN_POINT ( 'NONE',  ( 9.071134608832323652E-16, 0.4499999999999999556, 0.2598076211353302911 ) ) ;
#57 = DIRECTION ( 'NONE',  ( -4.554490559825206315E-31, -1.000000000000000000, -1.281975124255702555E-16 ) ) ;
#58 = CONICAL_SURFACE ( 'NONE', #105, 0.8499999999999986455, 0.5235987755982914882 ) ;
#59 = CALENDAR_DATE ( 2021, 10, 11 ) ;
#60 = EDGE_LOOP ( 'NONE', ( #162 ) ) ;
#61 = PERSON_AND_ORGANIZATION ( #134, #33 ) ;
#62 = DIRECTION ( 'NONE',  ( -3.491481338843133355E-15, 1.224646799147353207E-16, -1.000000000000000000 ) ) ;
#63 = DIRECTION ( 'NONE',  ( -3.491481338843133355E-15, 1.224646799147353207E-16, -1.000000000000000000 ) ) ;
#64 = APPROVAL_PERSON_ORGANIZATION ( #209, #192, #167 ) ;
#65 = EDGE_LOOP ( 'NONE', ( #82 ) ) ;
#66 = TOROIDAL_SURFACE ( 'NONE', #139, 0.9499999999999998446, 0.5000000000000000000 ) ;
#67 = FACE_OUTER_BOUND ( 'NONE', #242, .T. ) ;
#68 = VERTEX_POINT ( 'NONE', #19 ) ;
#69 = MANIFOLD_SOLID_BREP ( 'Corps-Déplacer/Copier1[2]', #107 ) ;
#70 = DESIGN_CONTEXT ( 'detailed design', #233, 'design' ) ;
#71 = AXIS2_PLACEMENT_3D ( 'NONE', #181, #25, #73 ) ;
#72 = FACE_BOUND ( 'NONE', #225, .T. ) ;
#73 = DIRECTION ( 'NONE',  ( 1.000000000000000000, 0.0000000000000000000, 0.0000000000000000000 ) ) ;
#74 = CIRCLE ( 'NONE', #145, 0.4499999999999999556 ) ;
#75 = CARTESIAN_POINT ( 'NONE',  ( 2.569663096666947919E-14, -9.013164845563677627E-16, 7.359807621135329825 ) ) ;
#76 = PERSON_AND_ORGANIZATION_ROLE ( 'creator' ) ;
#77 = ADVANCED_FACE ( 'NONE', ( #222, #142 ), #112, .T. ) ;
#78 = ORIENTED_EDGE ( 'NONE', *, *, #186, .F. ) ;
#79 = COORDINATED_UNIVERSAL_TIME_OFFSET ( 1, 0, .AHEAD. ) ;
#80 = CLOSED_SHELL ( 'NONE', ( #77, #149, #171, #166, #131, #201 ) ) ;
#81 = ORIENTED_EDGE ( 'NONE', *, *, #106, .T. ) ;
#82 = ORIENTED_EDGE ( 'NONE', *, *, #186, .T. ) ;
#83 = EDGE_LOOP ( 'NONE', ( #78 ) ) ;
#84 = CIRCLE ( 'NONE', #189, 0.4500000000000000111 ) ;
#85 = DATE_TIME_ROLE ( 'classification_date' ) ;
#86 = APPROVAL_PERSON_ORGANIZATION ( #21, #114, #196 ) ;
#87 = FACE_OUTER_BOUND ( 'NONE', #65, .T. ) ;
#88 = DIRECTION ( 'NONE',  ( -3.491481338843133355E-15, 1.224646799147353207E-16, -1.000000000000000000 ) ) ;
#89 = VERTEX_POINT ( 'NONE', #125 ) ;
#90 = CARTESIAN_POINT ( 'NONE',  ( 2.569663096666947919E-14, 3.374459510989165249E-33, 7.359807621135329825 ) ) ;
#91 = ADVANCED_FACE ( 'NONE', ( #203 ), #38, .T. ) ;
#92 = COORDINATED_UNIVERSAL_TIME_OFFSET ( 1, 0, .AHEAD. ) ;
#93 = DIRECTION ( 'NONE',  ( -3.491481338843133355E-15, 1.224646799147353207E-16, -1.000000000000000000 ) ) ;
#94 = EDGE_LOOP ( 'NONE', ( #159 ) ) ;
#95 = AXIS2_PLACEMENT_3D ( 'NONE', #191, #199, #57 ) ;
#96 = APPROVAL_STATUS ( 'not_yet_approved' ) ;
#97 = PERSON_AND_ORGANIZATION_ROLE ( 'design_owner' ) ;
#98 = AXIS2_PLACEMENT_3D ( 'NONE', #151, #63, #213 ) ;
#99 = AXIS2_PLACEMENT_3D ( 'NONE', #117, #178, #158 ) ;
#100 = DATE_AND_TIME ( #7, #195 ) ;
#101 = COORDINATED_UNIVERSAL_TIME_OFFSET ( 1, 0, .AHEAD. ) ;
#102 = FACE_OUTER_BOUND ( 'NONE', #229, .T. ) ;
#103 = EDGE_CURVE ( 'NONE', #204, #204, #194, .T. ) ;
#104 = APPROVAL_PERSON_ORGANIZATION ( #22, #182, #124 ) ;
#105 = AXIS2_PLACEMENT_3D ( 'NONE', #28, #239, #50 ) ;
#106 = EDGE_CURVE ( 'NONE', #68, #68, #237, .T. ) ;
#107 = CLOSED_SHELL ( 'NONE', ( #31, #216, #91 ) ) ;
#108 = DATE_AND_TIME ( #34, #40 ) ;
#109 = SECURITY_CLASSIFICATION_LEVEL ( 'unclassified' ) ;
#110 = AXIS2_PLACEMENT_3D ( 'NONE', #235, #175, #219 ) ;
#111 = APPROVAL_STATUS ( 'not_yet_approved' ) ;
#112 = CYLINDRICAL_SURFACE ( 'NONE', #32, 0.7499999999999985567 ) ;
#113 = AXIS2_PLACEMENT_3D ( 'NONE', #122, #157, #54 ) ;
#114 = APPROVAL ( #111, 'UNSPECIFIED' ) ;
#115 = DIRECTION ( 'NONE',  ( -3.491481338843133355E-15, 1.224646799147353207E-16, -1.000000000000000000 ) ) ;
#116 = DIRECTION ( 'NONE',  ( -3.491481338843133355E-15, 1.224646799147353207E-16, -1.000000000000000000 ) ) ;
#117 = CARTESIAN_POINT ( 'NONE',  ( 0.0000000000000000000, 0.0000000000000000000, 0.0000000000000000000 ) ) ;
#118 = PLANE ( 'NONE',  #113 ) ;
#119 = DIRECTION ( 'NONE',  ( 3.491481338843133355E-15, -1.224646799147353207E-16, 1.000000000000000000 ) ) ;
#120 = EDGE_CURVE ( 'NONE', #207, #207, #231, .T. ) ;
#121 = LOCAL_TIME ( 13, 11, 19.00000000000000000, #198 ) ;
#122 = CARTESIAN_POINT ( 'NONE',  ( 1.047444401652940007E-13, 4.499279347985518085E-33, 30.00000000000000000 ) ) ;
#123 = FACE_OUTER_BOUND ( 'NONE', #94, .T. ) ;
#124 = APPROVAL_ROLE ( '' ) ;
#125 = CARTESIAN_POINT ( 'NONE',  ( 2.797862769100164237E-14, -0.7499999999999995559, 8.013397459621558028 ) ) ;
#126 = PERSON_AND_ORGANIZATION_ROLE ( 'creator' ) ;
#127 = CC_DESIGN_PERSON_AND_ORGANIZATION_ASSIGNMENT ( #177, #76, ( #206 ) ) ;
#128 = DATE_AND_TIME ( #59, #232 ) ;
#129 = EDGE_LOOP ( 'NONE', ( #130 ) ) ;
#130 = ORIENTED_EDGE ( 'NONE', *, *, #154, .F. ) ;
#131 = ADVANCED_FACE ( 'NONE', ( #123 ), #218, .F. ) ;
#132 = CC_DESIGN_APPROVAL ( #182, ( #47 ) ) ;
#133 = COORDINATED_UNIVERSAL_TIME_OFFSET ( 1, 0, .AHEAD. ) ;
#134 = PERSON ( 'UNSPECIFIED', 'UNSPECIFIED', 'UNSPECIFIED', ('UNSPECIFIED'), ('UNSPECIFIED'), ('UNSPECIFIED') ) ;
#135 = PERSON_AND_ORGANIZATION_ROLE ( 'classification_officer' ) ;
#136 = ORIENTED_EDGE ( 'NONE', *, *, #103, .T. ) ;
#137 = CONICAL_SURFACE ( 'NONE', #155, 0.6000000000000000888, 0.7853981633974450594 ) ;
#138 = APPLICATION_PROTOCOL_DEFINITION ( 'international standard', 'config_control_design', 1994, #233 ) ;
#139 = AXIS2_PLACEMENT_3D ( 'NONE', #48, #116, #187 ) ;
#140 = PERSON_AND_ORGANIZATION_ROLE ( 'design_supplier' ) ;
#141 = PERSON_AND_ORGANIZATION ( #134, #33 ) ;
#142 = FACE_OUTER_BOUND ( 'NONE', #129, .T. ) ;
#143 = MANIFOLD_SOLID_BREP ( 'Corps-Déplacer/Copier1[1]', #80 ) ;
#144 =( NAMED_UNIT ( * ) SI_UNIT ( $, .STERADIAN. ) SOLID_ANGLE_UNIT ( ) );
#145 = AXIS2_PLACEMENT_3D ( 'NONE', #20, #115, #173 ) ;
#146 = PRODUCT ( '955390', '955390', '', ( #163 ) ) ;
#147 = CARTESIAN_POINT ( 'NONE',  ( 0.0000000000000000000, 0.0000000000000000000, 0.0000000000000000000 ) ) ;
#148 = APPROVAL_DATE_TIME ( #100, #192 ) ;
#149 = ADVANCED_FACE ( 'NONE', ( #193, #72 ), #137, .T. ) ;
#150 = ORIENTED_EDGE ( 'NONE', *, *, #120, .T. ) ;
#151 = CARTESIAN_POINT ( 'NONE',  ( 1.047444401652940007E-13, -3.673940397442059178E-15, 30.00000000000000000 ) ) ;
#152 = ORIENTED_EDGE ( 'NONE', *, *, #103, .F. ) ;
#153 = UNCERTAINTY_MEASURE_WITH_UNIT (LENGTH_MEASURE( 1.000000000000000082E-05 ), #160, 'distance_accuracy_value', 'NONE');
#154 = EDGE_CURVE ( 'NONE', #89, #89, #12, .T. ) ;
#155 = AXIS2_PLACEMENT_3D ( 'NONE', #176, #18, #16 ) ;
#156 = EDGE_CURVE ( 'NONE', #1, #1, #190, .T. ) ;
#157 = DIRECTION ( 'NONE',  ( -3.491481338843133355E-15, 1.224646799147353207E-16, -1.000000000000000000 ) ) ;
#158 = DIRECTION ( 'NONE',  ( 4.275831445896958607E-31, 1.000000000000000000, 1.224646799147352961E-16 ) ) ;
#159 = ORIENTED_EDGE ( 'NONE', *, *, #156, .T. ) ;
#160 =( LENGTH_UNIT ( ) NAMED_UNIT ( * ) SI_UNIT ( .MILLI., .METRE. ) );
#161 = CC_DESIGN_DATE_AND_TIME_ASSIGNMENT ( #230, #85, ( #170 ) ) ;
#162 = ORIENTED_EDGE ( 'NONE', *, *, #120, .F. ) ;
#163 = MECHANICAL_CONTEXT ( 'NONE', #214, 'mechanical' ) ;
#164 = CONICAL_SURFACE ( 'NONE', #95, 1732.050807568886512, 1.047197551196600074 ) ;
#165 = CC_DESIGN_APPROVAL ( #114, ( #206 ) ) ;
#166 = ADVANCED_FACE ( 'NONE', ( #185, #102 ), #58, .T. ) ;
#167 = APPROVAL_ROLE ( '' ) ;
#168 = EDGE_LOOP ( 'NONE', ( #150 ) ) ;
#169 = SHAPE_DEFINITION_REPRESENTATION ( #2, #240 ) ;
#170 = SECURITY_CLASSIFICATION ( '', '', #109 ) ;
#171 = ADVANCED_FACE ( 'NONE', ( #51 ), #118, .F. ) ;
#172 = CARTESIAN_POINT ( 'NONE',  ( 1.042207179644675275E-13, -3.655570695454848748E-15, 29.84999999999999787 ) ) ;
#173 = DIRECTION ( 'NONE',  ( 0.0000000000000000000, 1.000000000000000000, 0.0000000000000000000 ) ) ;
#174 = FACE_OUTER_BOUND ( 'NONE', #197, .T. ) ;
#175 = DIRECTION ( 'NONE',  ( 3.491481338843133355E-15, -1.247135059052984700E-16, 1.000000000000000000 ) ) ;
#176 = CARTESIAN_POINT ( 'NONE',  ( 1.047444401652940007E-13, -3.673940397442059178E-15, 30.00000000000000000 ) ) ;
#177 = PERSON_AND_ORGANIZATION ( #134, #33 ) ;
#178 = DIRECTION ( 'NONE',  ( -3.491481338843133355E-15, 1.224646799147353207E-16, -1.000000000000000000 ) ) ;
#179 = EDGE_LOOP ( 'NONE', ( #152 ) ) ;
#180 = DIRECTION ( 'NONE',  ( 0.0000000000000000000, -1.000000000000000000, 0.0000000000000000000 ) ) ;
#181 = CARTESIAN_POINT ( 'NONE',  ( 0.0000000000000000000, 0.0000000000000000000, 0.0000000000000000000 ) ) ;
#182 = APPROVAL ( #96, 'UNSPECIFIED' ) ;
#183 = PERSON_AND_ORGANIZATION ( #134, #33 ) ;
#184 = DIRECTION ( 'NONE',  ( 4.275831445896959482E-31, 1.000000000000000000, 1.224646799147353454E-16 ) ) ;
#185 = FACE_BOUND ( 'NONE', #168, .T. ) ;
#186 = EDGE_CURVE ( 'NONE', #41, #41, #74, .T. ) ;
#187 = DIRECTION ( 'NONE',  ( 4.275831445896958607E-31, 1.000000000000000000, 1.224646799147353207E-16 ) ) ;
#188 = DIRECTION ( 'NONE',  ( 4.279844320860524021E-31, 1.000000000000000000, 1.204669080539449344E-16 ) ) ;
#189 = AXIS2_PLACEMENT_3D ( 'NONE', #13, #46, #188 ) ;
#190 = CIRCLE ( 'NONE', #226, 0.4499999999999999556 ) ;
#191 = CARTESIAN_POINT ( 'NONE',  ( 3.491481338843133254E-12, -1.224646799147353249E-13, 1000.000000000000000 ) ) ;
#192 = APPROVAL ( #212, 'UNSPECIFIED' ) ;
#193 = FACE_OUTER_BOUND ( 'NONE', #227, .T. ) ;
#194 = CIRCLE ( 'NONE', #98, 0.6000000000000000888 ) ;
#195 = LOCAL_TIME ( 13, 11, 19.00000000000000000, #133 ) ;
#196 = APPROVAL_ROLE ( '' ) ;
#197 = EDGE_LOOP ( 'NONE', ( #200 ) ) ;
#198 = COORDINATED_UNIVERSAL_TIME_OFFSET ( 1, 0, .AHEAD. ) ;
#199 = DIRECTION ( 'NONE',  ( 3.491481338843133355E-15, -1.224646799147353207E-16, 1.000000000000000000 ) ) ;
#200 = ORIENTED_EDGE ( 'NONE', *, *, #15, .T. ) ;
#201 = ADVANCED_FACE ( 'NONE', ( #11, #236 ), #66, .F. ) ;
#202 = APPLICATION_PROTOCOL_DEFINITION ( 'international standard', 'config_control_design', 1994, #214 ) ;
#203 = FACE_OUTER_BOUND ( 'NONE', #83, .T. ) ;
#204 = VERTEX_POINT ( 'NONE', #14 ) ;
#205 = DATE_TIME_ROLE ( 'creation_date' ) ;
#206 = PRODUCT_DEFINITION_FORMATION_WITH_SPECIFIED_SOURCE ( 'ANY', '', #146, .NOT_KNOWN. ) ;
#207 = VERTEX_POINT ( 'NONE', #221 ) ;
#208 = ORIENTED_EDGE ( 'NONE', *, *, #154, .T. ) ;
#209 = PERSON_AND_ORGANIZATION ( #134, #33 ) ;
#210 = DIRECTION ( 'NONE',  ( 0.0000000000000000000, 1.000000000000000000, 0.0000000000000000000 ) ) ;
#211 = CC_DESIGN_PERSON_AND_ORGANIZATION_ASSIGNMENT ( #61, #126, ( #47 ) ) ;
#212 = APPROVAL_STATUS ( 'not_yet_approved' ) ;
#213 = DIRECTION ( 'NONE',  ( 0.0000000000000000000, 1.000000000000000000, 0.0000000000000000000 ) ) ;
#214 = APPLICATION_CONTEXT ( 'configuration controlled 3d designs of mechanical parts and assemblies' ) ;
#215 = AXIS2_PLACEMENT_3D ( 'NONE', #224, #24, #3 ) ;
#216 = ADVANCED_FACE ( 'NONE', ( #87, #67 ), #45, .T. ) ;
#217 = CARTESIAN_POINT ( 'NONE',  ( 2.797862769100164237E-14, -9.993788914020169310E-16, 8.013397459621558028 ) ) ;
#218 = PLANE ( 'NONE',  #8 ) ;
#219 = DIRECTION ( 'NONE',  ( 0.0000000000000000000, -1.000000000000000000, 0.0000000000000000000 ) ) ;
#220 = LOCAL_TIME ( 13, 11, 19.00000000000000000, #101 ) ;
#221 = CARTESIAN_POINT ( 'NONE',  ( 2.656950130138025306E-14, -0.5169872981077808793, 7.609807621135327160 ) ) ;
#222 = FACE_OUTER_BOUND ( 'NONE', #17, .T. ) ;
#223 = CALENDAR_DATE ( 2021, 10, 11 ) ;
#224 = CARTESIAN_POINT ( 'NONE',  ( 2.569663096666947919E-14, 3.374459510989165249E-33, 7.359807621135329825 ) ) ;
#225 = EDGE_LOOP ( 'NONE', ( #136 ) ) ;
#226 = AXIS2_PLACEMENT_3D ( 'NONE', #75, #88, #210 ) ;
#227 = EDGE_LOOP ( 'NONE', ( #27 ) ) ;
#228 = APPROVAL_DATE_TIME ( #243, #182 ) ;
#229 = EDGE_LOOP ( 'NONE', ( #208 ) ) ;
#230 = DATE_AND_TIME ( #26, #220 ) ;
#231 = CIRCLE ( 'NONE', #110, 0.5169872981077798801 ) ;
#232 = LOCAL_TIME ( 13, 11, 19.00000000000000000, #79 ) ;
#233 = APPLICATION_CONTEXT ( 'configuration controlled 3d designs of mechanical parts and assemblies' ) ;
#234 = PRODUCT_RELATED_PRODUCT_CATEGORY ( 'detail', '', ( #146 ) ) ;
#235 = CARTESIAN_POINT ( 'NONE',  ( 2.656950130138025306E-14, -9.490457876966457460E-16, 7.609807621135327160 ) ) ;
#236 = FACE_OUTER_BOUND ( 'NONE', #60, .T. ) ;
#237 = CIRCLE ( 'NONE', #52, 0.7499999999999998890 ) ;
#238 = CC_DESIGN_SECURITY_CLASSIFICATION ( #170, ( #206 ) ) ;
#239 = DIRECTION ( 'NONE',  ( 3.491481338843133355E-15, -1.247135059052984700E-16, 1.000000000000000000 ) ) ;
#240 = ADVANCED_BREP_SHAPE_REPRESENTATION ( '955390', ( #143, #69, #71 ), #43 ) ;
#241 = APPROVAL_DATE_TIME ( #108, #114 ) ;
#242 = EDGE_LOOP ( 'NONE', ( #36 ) ) ;
#243 = DATE_AND_TIME ( #223, #121 ) ;
ENDSEC;
END-ISO-10303-21;
