ISO-10303-21;
HEADER;
FILE_DESCRIPTION (( 'STEP AP203' ),
    '1' );
FILE_NAME ('955389.step',
    '2021-11-10T12:11:18',
    ( '' ),
    ( '' ),
    'SwSTEP 2.0',
    'SolidWorks 2019',
    '' );
FILE_SCHEMA (( 'CONFIG_CONTROL_DESIGN' ));
ENDSEC;

DATA;
#1 = APPROVAL_ROLE ( '' ) ;
#2 = ORIENTED_EDGE ( 'NONE', *, *, #147, .T. ) ;
#3 = CLOSED_SHELL ( 'NONE', ( #50, #209, #126 ) ) ;
#4 = CARTESIAN_POINT ( 'NONE',  ( 2.372592103803445779E-14, -0.4919872981077799134, 6.795373864405587661 ) ) ;
#5 = AXIS2_PLACEMENT_3D ( 'NONE', #171, #111, #206 ) ;
#6 = AXIS2_PLACEMENT_3D ( 'NONE', #11, #203, #236 ) ;
#7 = DIRECTION ( 'NONE',  ( -3.491481338843133355E-15, 1.224646799147353207E-16, -1.000000000000000000 ) ) ;
#8 = DATE_AND_TIME ( #97, #189 ) ;
#9 = CARTESIAN_POINT ( 'NONE',  ( 1.042207179644675275E-13, -3.655570695454848748E-15, 29.84999999999999787 ) ) ;
#10 = APPLICATION_CONTEXT ( 'configuration controlled 3d designs of mechanical parts and assemblies' ) ;
#11 = CARTESIAN_POINT ( 'NONE',  ( 2.285305070332368076E-14, 3.186989538156435101E-33, 6.545373864405589437 ) ) ;
#12 = APPROVAL ( #20, 'UNSPECIFIED' ) ;
#13 = COORDINATED_UNIVERSAL_TIME_OFFSET ( 1, 0, .AHEAD. ) ;
#14 = FACE_OUTER_BOUND ( 'NONE', #194, .T. ) ;
#15 = FACE_OUTER_BOUND ( 'NONE', #214, .T. ) ;
#16 = MANIFOLD_SOLID_BREP ( 'Corps-Déplacer/Copier1[2]', #3 ) ;
#17 = ADVANCED_FACE ( 'NONE', ( #43, #69 ), #125, .T. ) ;
#18 = DIRECTION ( 'NONE',  ( -3.491481338843133355E-15, 1.224646799147353207E-16, -1.000000000000000000 ) ) ;
#19 = PRODUCT_DEFINITION_SHAPE ( 'NONE', 'NONE',  #95 ) ;
#20 = APPROVAL_STATUS ( 'not_yet_approved' ) ;
#21 = APPROVAL_PERSON_ORGANIZATION ( #205, #131, #199 ) ;
#22 = APPROVAL_STATUS ( 'not_yet_approved' ) ;
#23 = CALENDAR_DATE ( 2021, 10, 11 ) ;
#24 = ORIENTED_EDGE ( 'NONE', *, *, #81, .F. ) ;
#25 = EDGE_LOOP ( 'NONE', ( #2 ) ) ;
#26 = CC_DESIGN_PERSON_AND_ORGANIZATION_ASSIGNMENT ( #227, #210, ( #87 ) ) ;
#27 = CLOSED_SHELL ( 'NONE', ( #225, #72, #167, #17, #45, #108 ) ) ;
#28 = CC_DESIGN_APPROVAL ( #89, ( #87 ) ) ;
#29 = ADVANCED_BREP_SHAPE_REPRESENTATION ( '955389', ( #181, #16, #51 ), #212 ) ;
#30 = CIRCLE ( 'NONE', #143, 0.4249999999999999889 ) ;
#31 = DIRECTION ( 'NONE',  ( -3.491481338843133355E-15, 1.224646799147353207E-16, -1.000000000000000000 ) ) ;
#32 = EDGE_CURVE ( 'NONE', #137, #137, #36, .T. ) ;
#33 = CARTESIAN_POINT ( 'NONE',  ( 2.285305070332368076E-14, -7.589415207398531038E-16, 6.545373864405589437 ) ) ;
#34 = PERSON ( 'UNSPECIFIED', 'UNSPECIFIED', 'UNSPECIFIED', ('UNSPECIFIED'), ('UNSPECIFIED'), ('UNSPECIFIED') ) ;
#35 = CARTESIAN_POINT ( 'NONE',  ( 2.285305070332368076E-14, -8.015771152267047479E-16, 6.545373864405589437 ) ) ;
#36 = CIRCLE ( 'NONE', #165, 0.6000000000000000888 ) ;
#37 = CARTESIAN_POINT ( 'NONE',  ( 2.285305070332368076E-14, -8.015771152267047479E-16, 6.545373864405589437 ) ) ;
#38 = EDGE_CURVE ( 'NONE', #65, #65, #41, .T. ) ;
#39 = CALENDAR_DATE ( 2021, 10, 11 ) ;
#40 = EDGE_LOOP ( 'NONE', ( #229 ) ) ;
#41 = CIRCLE ( 'NONE', #118, 0.4919872981077790808 ) ;
#42 = EDGE_LOOP ( 'NONE', ( #139 ) ) ;
#43 = FACE_BOUND ( 'NONE', #176, .T. ) ;
#44 = CARTESIAN_POINT ( 'NONE',  ( 1.042207179644675275E-13, 0.7499999999999962252, 29.84999999999999787 ) ) ;
#45 = ADVANCED_FACE ( 'NONE', ( #168 ), #57, .F. ) ;
#46 = CC_DESIGN_PERSON_AND_ORGANIZATION_ASSIGNMENT ( #164, #71, ( #95 ) ) ;
#47 = DESIGN_CONTEXT ( 'detailed design', #10, 'design' ) ;
#48 = DIRECTION ( 'NONE',  ( 0.0000000000000000000, -1.000000000000000000, 0.0000000000000000000 ) ) ;
#49 = DATE_AND_TIME ( #201, #162 ) ;
#50 = ADVANCED_FACE ( 'NONE', ( #200 ), #196, .T. ) ;
#51 = AXIS2_PLACEMENT_3D ( 'NONE', #208, #159, #60 ) ;
#52 = FACE_BOUND ( 'NONE', #121, .T. ) ;
#53 = DIRECTION ( 'NONE',  ( -3.491481338843133355E-15, 1.224646799147353207E-16, -1.000000000000000000 ) ) ;
#54 = DIRECTION ( 'NONE',  ( 0.0000000000000000000, 1.000000000000000000, 0.0000000000000000000 ) ) ;
#55 = AXIS2_PLACEMENT_3D ( 'NONE', #33, #113, #94 ) ;
#56 = CC_DESIGN_DATE_AND_TIME_ASSIGNMENT ( #59, #120, ( #87 ) ) ;
#57 = PLANE ( 'NONE',  #6 ) ;
#58 = EDGE_CURVE ( 'NONE', #63, #63, #151, .T. ) ;
#59 = DATE_AND_TIME ( #39, #114 ) ;
#60 = DIRECTION ( 'NONE',  ( 1.000000000000000000, 0.0000000000000000000, 0.0000000000000000000 ) ) ;
#61 = ORIENTED_EDGE ( 'NONE', *, *, #160, .T. ) ;
#62 = AXIS2_PLACEMENT_3D ( 'NONE', #133, #53, #77 ) ;
#63 = VERTEX_POINT ( 'NONE', #44 ) ;
#64 = EDGE_LOOP ( 'NONE', ( #103 ) ) ;
#65 = VERTEX_POINT ( 'NONE', #4 ) ;
#66 = COORDINATED_UNIVERSAL_TIME_OFFSET ( 1, 0, .AHEAD. ) ;
#67 = AXIS2_PLACEMENT_3D ( 'NONE', #222, #241, #78 ) ;
#68 = SHAPE_DEFINITION_REPRESENTATION ( #19, #29 ) ;
#69 = FACE_OUTER_BOUND ( 'NONE', #152, .T. ) ;
#70 = CIRCLE ( 'NONE', #182, 0.4249999999999999889 ) ;
#71 = PERSON_AND_ORGANIZATION_ROLE ( 'creator' ) ;
#72 = ADVANCED_FACE ( 'NONE', ( #172, #52 ), #110, .T. ) ;
#73 = CARTESIAN_POINT ( 'NONE',  ( 2.285305070332368076E-14, 3.186989538156435101E-33, 6.545373864405589437 ) ) ;
#74 = UNCERTAINTY_MEASURE_WITH_UNIT (LENGTH_MEASURE( 1.000000000000000082E-05 ), #82, 'distance_accuracy_value', 'NONE');
#75 = DIRECTION ( 'NONE',  ( 3.491481338843133355E-15, -1.224646799147353207E-16, 1.000000000000000000 ) ) ;
#76 = DIRECTION ( 'NONE',  ( 4.275831445896958607E-31, 1.000000000000000000, 1.224646799147353207E-16 ) ) ;
#77 = DIRECTION ( 'NONE',  ( 4.275831445896958607E-31, 1.000000000000000000, 1.224646799147353207E-16 ) ) ;
#78 = DIRECTION ( 'NONE',  ( 4.275831445896958607E-31, 1.000000000000000000, 1.224646799147353454E-16 ) ) ;
#79 = AXIS2_PLACEMENT_3D ( 'NONE', #73, #92, #187 ) ;
#80 = ORIENTED_EDGE ( 'NONE', *, *, #58, .F. ) ;
#81 = EDGE_CURVE ( 'NONE', #100, #100, #178, .T. ) ;
#82 =( LENGTH_UNIT ( ) NAMED_UNIT ( * ) SI_UNIT ( .MILLI., .METRE. ) );
#83 = VERTEX_POINT ( 'NONE', #179 ) ;
#84 = ORIENTED_EDGE ( 'NONE', *, *, #58, .T. ) ;
#85 = APPROVAL_DATE_TIME ( #122, #12 ) ;
#86 = DIRECTION ( 'NONE',  ( 3.491481338843133355E-15, -1.247135059052984700E-16, 1.000000000000000000 ) ) ;
#87 = SECURITY_CLASSIFICATION ( '', '', #153 ) ;
#88 = CARTESIAN_POINT ( 'NONE',  ( 2.589097531172522003E-14, -9.248092683498807433E-16, 7.415470053837930564 ) ) ;
#89 = APPROVAL ( #22, 'UNSPECIFIED' ) ;
#90 = CIRCLE ( 'NONE', #223, 0.7499999999999984457 ) ;
#91 = APPROVAL_DATE_TIME ( #8, #131 ) ;
#92 = DIRECTION ( 'NONE',  ( 3.491481338843133355E-15, -1.224646799147353207E-16, 1.000000000000000000 ) ) ;
#93 = CC_DESIGN_APPROVAL ( #131, ( #129 ) ) ;
#94 = DIRECTION ( 'NONE',  ( 4.275831445896958607E-31, 1.000000000000000000, 1.224646799147353207E-16 ) ) ;
#95 = PRODUCT_DEFINITION ( 'UNKNOWN', '', #129, #47 ) ;
#96 = FACE_OUTER_BOUND ( 'NONE', #64, .T. ) ;
#97 = CALENDAR_DATE ( 2021, 10, 11 ) ;
#98 = DIRECTION ( 'NONE',  ( 0.0000000000000000000, 1.000000000000000000, 0.0000000000000000000 ) ) ;
#99 = COORDINATED_UNIVERSAL_TIME_OFFSET ( 1, 0, .AHEAD. ) ;
#100 = VERTEX_POINT ( 'NONE', #142 ) ;
#101 = ORGANIZATION ( 'UNSPECIFIED', 'UNSPECIFIED', '' ) ;
#102 = PERSON_AND_ORGANIZATION_ROLE ( 'design_owner' ) ;
#103 = ORIENTED_EDGE ( 'NONE', *, *, #160, .F. ) ;
#104 = ORIENTED_EDGE ( 'NONE', *, *, #38, .T. ) ;
#105 = AXIS2_PLACEMENT_3D ( 'NONE', #148, #149, #130 ) ;
#106 = ORIENTED_EDGE ( 'NONE', *, *, #147, .F. ) ;
#107 = CARTESIAN_POINT ( 'NONE',  ( 2.372592103803445779E-14, -8.474748985672571654E-16, 6.795373864405587661 ) ) ;
#108 = ADVANCED_FACE ( 'NONE', ( #184, #14 ), #177, .F. ) ;
#109 = LOCAL_TIME ( 13, 11, 18.00000000000000000, #243 ) ;
#110 = CONICAL_SURFACE ( 'NONE', #105, 0.6000000000000000888, 0.7853981633974450594 ) ;
#111 = DIRECTION ( 'NONE',  ( -3.491481338843133355E-15, 1.224646799147353207E-16, -1.000000000000000000 ) ) ;
#112 = DIRECTION ( 'NONE',  ( -4.554490559825206315E-31, -1.000000000000000000, -1.281975124255702555E-16 ) ) ;
#113 = DIRECTION ( 'NONE',  ( -3.491481338843133355E-15, 1.224646799147353207E-16, -1.000000000000000000 ) ) ;
#114 = LOCAL_TIME ( 13, 11, 18.00000000000000000, #99 ) ;
#115 = DIRECTION ( 'NONE',  ( -3.491481338843133355E-15, 1.224646799147353207E-16, -1.000000000000000000 ) ) ;
#116 = DIRECTION ( 'NONE',  ( -3.491481338843133355E-15, 1.247135059052984700E-16, -1.000000000000000000 ) ) ;
#117 =( NAMED_UNIT ( * ) PLANE_ANGLE_UNIT ( ) SI_UNIT ( $, .RADIAN. ) );
#118 = AXIS2_PLACEMENT_3D ( 'NONE', #107, #86, #161 ) ;
#119 = EDGE_LOOP ( 'NONE', ( #106 ) ) ;
#120 = DATE_TIME_ROLE ( 'classification_date' ) ;
#121 = EDGE_LOOP ( 'NONE', ( #192 ) ) ;
#122 = DATE_AND_TIME ( #23, #109 ) ;
#123 = CC_DESIGN_PERSON_AND_ORGANIZATION_ASSIGNMENT ( #145, #157, ( #129 ) ) ;
#124 = ORIENTED_EDGE ( 'NONE', *, *, #38, .F. ) ;
#125 = CONICAL_SURFACE ( 'NONE', #198, 0.8499999999999986455, 0.5235987755982932645 ) ;
#126 = ADVANCED_FACE ( 'NONE', ( #240 ), #202, .T. ) ;
#127 = AXIS2_PLACEMENT_3D ( 'NONE', #219, #18, #76 ) ;
#128 = PRODUCT ( '955389', '955389', '', ( #190 ) ) ;
#129 = PRODUCT_DEFINITION_FORMATION_WITH_SPECIFIED_SOURCE ( 'ANY', '', #128, .NOT_KNOWN. ) ;
#130 = DIRECTION ( 'NONE',  ( 0.0000000000000000000, 1.000000000000000000, 0.0000000000000000000 ) ) ;
#131 = APPROVAL ( #186, 'UNSPECIFIED' ) ;
#132 = CARTESIAN_POINT ( 'NONE',  ( 3.491481338843133254E-12, -1.224646799147353249E-13, 1000.000000000000000 ) ) ;
#133 = CARTESIAN_POINT ( 'NONE',  ( 0.0000000000000000000, 0.0000000000000000000, 0.0000000000000000000 ) ) ;
#134 = DATE_TIME_ROLE ( 'creation_date' ) ;
#135 = FACE_OUTER_BOUND ( 'NONE', #40, .T. ) ;
#136 = APPLICATION_PROTOCOL_DEFINITION ( 'international standard', 'config_control_design', 1994, #10 ) ;
#137 = VERTEX_POINT ( 'NONE', #188 ) ;
#138 = APPROVAL_PERSON_ORGANIZATION ( #174, #12, #173 ) ;
#139 = ORIENTED_EDGE ( 'NONE', *, *, #217, .F. ) ;
#140 = APPLICATION_PROTOCOL_DEFINITION ( 'international standard', 'config_control_design', 1994, #238 ) ;
#141 = ORIENTED_EDGE ( 'NONE', *, *, #81, .T. ) ;
#142 = CARTESIAN_POINT ( 'NONE',  ( 8.567182686119416125E-16, 0.4249999999999999889, 0.2453738644055896423 ) ) ;
#143 = AXIS2_PLACEMENT_3D ( 'NONE', #35, #115, #98 ) ;
#144 = CC_DESIGN_PERSON_AND_ORGANIZATION_ASSIGNMENT ( #226, #207, ( #129 ) ) ;
#145 = PERSON_AND_ORGANIZATION ( #34, #101 ) ;
#146 = PLANE ( 'NONE',  #127 ) ;
#147 = EDGE_CURVE ( 'NONE', #211, #211, #70, .T. ) ;
#148 = CARTESIAN_POINT ( 'NONE',  ( 1.047444401652940007E-13, -3.673940397442059178E-15, 30.00000000000000000 ) ) ;
#149 = DIRECTION ( 'NONE',  ( -3.491481338843133355E-15, 1.224646799147353207E-16, -1.000000000000000000 ) ) ;
#150 = CYLINDRICAL_SURFACE ( 'NONE', #67, 0.7499999999999984457 ) ;
#151 = CIRCLE ( 'NONE', #242, 0.7499999999999998890 ) ;
#152 = EDGE_LOOP ( 'NONE', ( #61 ) ) ;
#153 = SECURITY_CLASSIFICATION_LEVEL ( 'unclassified' ) ;
#154 = CARTESIAN_POINT ( 'NONE',  ( 2.528623300446972232E-14, -0.7499999999999993339, 7.242264973081040225 ) ) ;
#155 =( NAMED_UNIT ( * ) SI_UNIT ( $, .STERADIAN. ) SOLID_ANGLE_UNIT ( ) );
#156 = EDGE_LOOP ( 'NONE', ( #195 ) ) ;
#157 = PERSON_AND_ORGANIZATION_ROLE ( 'creator' ) ;
#158 = CARTESIAN_POINT ( 'NONE',  ( 2.285305070332368076E-14, 0.4249999999999991562, 6.545373864405589437 ) ) ;
#159 = DIRECTION ( 'NONE',  ( 0.0000000000000000000, 0.0000000000000000000, 1.000000000000000000 ) ) ;
#160 = EDGE_CURVE ( 'NONE', #197, #197, #90, .T. ) ;
#161 = DIRECTION ( 'NONE',  ( 0.0000000000000000000, -1.000000000000000000, 0.0000000000000000000 ) ) ;
#162 = LOCAL_TIME ( 13, 11, 18.00000000000000000, #183 ) ;
#163 = APPROVAL_DATE_TIME ( #216, #89 ) ;
#164 = PERSON_AND_ORGANIZATION ( #34, #101 ) ;
#165 = AXIS2_PLACEMENT_3D ( 'NONE', #233, #7, #234 ) ;
#166 = DIRECTION ( 'NONE',  ( -3.491481338843133355E-15, 1.224646799147353207E-16, -1.000000000000000000 ) ) ;
#167 = ADVANCED_FACE ( 'NONE', ( #135 ), #146, .F. ) ;
#168 = FACE_OUTER_BOUND ( 'NONE', #25, .T. ) ;
#169 = CC_DESIGN_SECURITY_CLASSIFICATION ( #87, ( #129 ) ) ;
#170 = DIRECTION ( 'NONE',  ( 0.0000000000000000000, 1.000000000000000000, 0.0000000000000000000 ) ) ;
#171 = CARTESIAN_POINT ( 'NONE',  ( 8.567182686119414153E-16, -3.004963176387219783E-17, 0.2453738644055895868 ) ) ;
#172 = FACE_OUTER_BOUND ( 'NONE', #213, .T. ) ;
#173 = APPROVAL_ROLE ( '' ) ;
#174 = PERSON_AND_ORGANIZATION ( #34, #101 ) ;
#175 = CC_DESIGN_DATE_AND_TIME_ASSIGNMENT ( #49, #134, ( #95 ) ) ;
#176 = EDGE_LOOP ( 'NONE', ( #104 ) ) ;
#177 = TOROIDAL_SURFACE ( 'NONE', #55, 0.9249999999999998224, 0.5000000000000000000 ) ;
#178 = CIRCLE ( 'NONE', #5, 0.4250000000000000444 ) ;
#179 = CARTESIAN_POINT ( 'NONE',  ( 2.285305070332368076E-14, 0.4249999999999991562, 6.545373864405589437 ) ) ;
#180 = EDGE_LOOP ( 'NONE', ( #141 ) ) ;
#181 = MANIFOLD_SOLID_BREP ( 'Corps-Déplacer/Copier1[1]', #27 ) ;
#182 = AXIS2_PLACEMENT_3D ( 'NONE', #37, #166, #170 ) ;
#183 = COORDINATED_UNIVERSAL_TIME_OFFSET ( 1, 0, .AHEAD. ) ;
#184 = FACE_OUTER_BOUND ( 'NONE', #119, .T. ) ;
#185 = CYLINDRICAL_SURFACE ( 'NONE', #62, 0.4250000000000000444 ) ;
#186 = APPROVAL_STATUS ( 'not_yet_approved' ) ;
#187 = DIRECTION ( 'NONE',  ( -4.275831445896958607E-31, -1.000000000000000000, -1.224646799147353207E-16 ) ) ;
#188 = CARTESIAN_POINT ( 'NONE',  ( 1.047444401652940007E-13, 0.5999999999999963141, 30.00000000000000000 ) ) ;
#189 = LOCAL_TIME ( 13, 11, 18.00000000000000000, #13 ) ;
#190 = MECHANICAL_CONTEXT ( 'NONE', #238, 'mechanical' ) ;
#191 = CC_DESIGN_PERSON_AND_ORGANIZATION_ASSIGNMENT ( #228, #102, ( #128 ) ) ;
#192 = ORIENTED_EDGE ( 'NONE', *, *, #32, .T. ) ;
#193 = PERSON_AND_ORGANIZATION ( #34, #101 ) ;
#194 = EDGE_LOOP ( 'NONE', ( #124 ) ) ;
#195 = ORIENTED_EDGE ( 'NONE', *, *, #217, .T. ) ;
#196 = CONICAL_SURFACE ( 'NONE', #204, 1732.050807568886512, 1.047197551196600074 ) ;
#197 = VERTEX_POINT ( 'NONE', #154 ) ;
#198 = AXIS2_PLACEMENT_3D ( 'NONE', #88, #218, #48 ) ;
#199 = APPROVAL_ROLE ( '' ) ;
#200 = FACE_OUTER_BOUND ( 'NONE', #180, .T. ) ;
#201 = CALENDAR_DATE ( 2021, 10, 11 ) ;
#202 = PLANE ( 'NONE',  #79 ) ;
#203 = DIRECTION ( 'NONE',  ( 3.491481338843133355E-15, -1.224646799147353207E-16, 1.000000000000000000 ) ) ;
#204 = AXIS2_PLACEMENT_3D ( 'NONE', #132, #75, #112 ) ;
#205 = PERSON_AND_ORGANIZATION ( #34, #101 ) ;
#206 = DIRECTION ( 'NONE',  ( 4.531599869146436529E-31, 1.000000000000000000, 1.275531967630004999E-16 ) ) ;
#207 = PERSON_AND_ORGANIZATION_ROLE ( 'design_supplier' ) ;
#208 = CARTESIAN_POINT ( 'NONE',  ( 0.0000000000000000000, 0.0000000000000000000, 0.0000000000000000000 ) ) ;
#209 = ADVANCED_FACE ( 'NONE', ( #221, #224 ), #185, .T. ) ;
#210 = PERSON_AND_ORGANIZATION_ROLE ( 'classification_officer' ) ;
#211 = VERTEX_POINT ( 'NONE', #158 ) ;
#212 =( GEOMETRIC_REPRESENTATION_CONTEXT ( 3 ) GLOBAL_UNCERTAINTY_ASSIGNED_CONTEXT ( ( #74 ) ) GLOBAL_UNIT_ASSIGNED_CONTEXT ( ( #82, #117, #155 ) ) REPRESENTATION_CONTEXT ( 'NONE', 'WORKASPACE' ) );
#213 = EDGE_LOOP ( 'NONE', ( #80 ) ) ;
#214 = EDGE_LOOP ( 'NONE', ( #84 ) ) ;
#215 = PRODUCT_RELATED_PRODUCT_CATEGORY ( 'detail', '', ( #128 ) ) ;
#216 = DATE_AND_TIME ( #232, #237 ) ;
#217 = EDGE_CURVE ( 'NONE', #83, #83, #30, .T. ) ;
#218 = DIRECTION ( 'NONE',  ( 3.491481338843133355E-15, -1.247135059052984700E-16, 1.000000000000000000 ) ) ;
#219 = CARTESIAN_POINT ( 'NONE',  ( 1.047444401652940007E-13, 4.499279347985518085E-33, 30.00000000000000000 ) ) ;
#220 = APPROVAL_PERSON_ORGANIZATION ( #193, #89, #1 ) ;
#221 = FACE_OUTER_BOUND ( 'NONE', #156, .T. ) ;
#222 = CARTESIAN_POINT ( 'NONE',  ( 0.0000000000000000000, 0.0000000000000000000, 0.0000000000000000000 ) ) ;
#223 = AXIS2_PLACEMENT_3D ( 'NONE', #235, #116, #239 ) ;
#224 = FACE_OUTER_BOUND ( 'NONE', #230, .T. ) ;
#225 = ADVANCED_FACE ( 'NONE', ( #15, #96 ), #150, .T. ) ;
#226 = PERSON_AND_ORGANIZATION ( #34, #101 ) ;
#227 = PERSON_AND_ORGANIZATION ( #34, #101 ) ;
#228 = PERSON_AND_ORGANIZATION ( #34, #101 ) ;
#229 = ORIENTED_EDGE ( 'NONE', *, *, #32, .F. ) ;
#230 = EDGE_LOOP ( 'NONE', ( #24 ) ) ;
#231 = CC_DESIGN_APPROVAL ( #12, ( #95 ) ) ;
#232 = CALENDAR_DATE ( 2021, 10, 11 ) ;
#233 = CARTESIAN_POINT ( 'NONE',  ( 1.047444401652940007E-13, -3.673940397442059178E-15, 30.00000000000000000 ) ) ;
#234 = DIRECTION ( 'NONE',  ( 0.0000000000000000000, 1.000000000000000000, 0.0000000000000000000 ) ) ;
#235 = CARTESIAN_POINT ( 'NONE',  ( 2.528623300446972232E-14, -9.032082554880785529E-16, 7.242264973081040225 ) ) ;
#236 = DIRECTION ( 'NONE',  ( -4.275831445896958607E-31, -1.000000000000000000, -1.224646799147353207E-16 ) ) ;
#237 = LOCAL_TIME ( 13, 11, 18.00000000000000000, #66 ) ;
#238 = APPLICATION_CONTEXT ( 'configuration controlled 3d designs of mechanical parts and assemblies' ) ;
#239 = DIRECTION ( 'NONE',  ( 0.0000000000000000000, -1.000000000000000000, 0.0000000000000000000 ) ) ;
#240 = FACE_OUTER_BOUND ( 'NONE', #42, .T. ) ;
#241 = DIRECTION ( 'NONE',  ( -3.491481338843133355E-15, 1.224646799147353207E-16, -1.000000000000000000 ) ) ;
#242 = AXIS2_PLACEMENT_3D ( 'NONE', #9, #31, #54 ) ;
#243 = COORDINATED_UNIVERSAL_TIME_OFFSET ( 1, 0, .AHEAD. ) ;
ENDSEC;
END-ISO-10303-21;
