ISO-10303-21;
HEADER;
FILE_DESCRIPTION (( 'STEP AP203' ),
    '1' );
FILE_NAME ('955388.step',
    '2021-11-10T12:11:18',
    ( '' ),
    ( '' ),
    'SwSTEP 2.0',
    'SolidWorks 2019',
    '' );
FILE_SCHEMA (( 'CONFIG_CONTROL_DESIGN' ));
ENDSEC;

DATA;
#1 = PRODUCT_DEFINITION_SHAPE ( 'NONE', 'NONE',  #24 ) ;
#2 = AXIS2_PLACEMENT_3D ( 'NONE', #218, #146, #131 ) ;
#3 = VERTEX_POINT ( 'NONE', #54 ) ;
#4 = ORIENTED_EDGE ( 'NONE', *, *, #103, .T. ) ;
#5 = APPROVAL_PERSON_ORGANIZATION ( #30, #55, #65 ) ;
#6 = ADVANCED_FACE ( 'NONE', ( #230 ), #144, .T. ) ;
#7 = PERSON_AND_ORGANIZATION_ROLE ( 'design_supplier' ) ;
#8 = DIRECTION ( 'NONE',  ( 3.491481338843133355E-15, -1.247135059052984700E-16, 1.000000000000000000 ) ) ;
#9 = TOROIDAL_SURFACE ( 'NONE', #142, 0.9000000000000001332, 0.4999999999999998890 ) ;
#10 = DIRECTION ( 'NONE',  ( -4.275831445896958607E-31, -1.000000000000000000, -1.224646799147353207E-16 ) ) ;
#11 = EDGE_LOOP ( 'NONE', ( #122 ) ) ;
#12 = APPROVAL_ROLE ( '' ) ;
#13 = COORDINATED_UNIVERSAL_TIME_OFFSET ( 1, 0, .AHEAD. ) ;
#14 = ORGANIZATION ( 'UNSPECIFIED', 'UNSPECIFIED', '' ) ;
#15 =( GEOMETRIC_REPRESENTATION_CONTEXT ( 3 ) GLOBAL_UNCERTAINTY_ASSIGNED_CONTEXT ( ( #42 ) ) GLOBAL_UNIT_ASSIGNED_CONTEXT ( ( #156, #158, #84 ) ) REPRESENTATION_CONTEXT ( 'NONE', 'WORKASPACE' ) );
#16 = CARTESIAN_POINT ( 'NONE',  ( 1.042207179644675275E-13, 0.7499999999999962252, 29.84999999999999787 ) ) ;
#17 = DATE_TIME_ROLE ( 'classification_date' ) ;
#18 = CARTESIAN_POINT ( 'NONE',  ( 3.491481338843133254E-12, -1.224646799147353249E-13, 1000.000000000000000 ) ) ;
#19 = VERTEX_POINT ( 'NONE', #83 ) ;
#20 = EDGE_LOOP ( 'NONE', ( #223 ) ) ;
#21 = ADVANCED_FACE ( 'NONE', ( #115 ), #48, .T. ) ;
#22 = CONICAL_SURFACE ( 'NONE', #104, 0.8499999999999986455, 0.5235987755982934866 ) ;
#23 = APPLICATION_PROTOCOL_DEFINITION ( 'international standard', 'config_control_design', 1994, #188 ) ;
#24 = PRODUCT_DEFINITION ( 'UNKNOWN', '', #212, #159 ) ;
#25 = PERSON ( 'UNSPECIFIED', 'UNSPECIFIED', 'UNSPECIFIED', ('UNSPECIFIED'), ('UNSPECIFIED'), ('UNSPECIFIED') ) ;
#26 = CARTESIAN_POINT ( 'NONE',  ( 2.367552584576316605E-14, -8.456748141621069665E-16, 6.780940107675846207 ) ) ;
#27 = PERSON_AND_ORGANIZATION_ROLE ( 'design_owner' ) ;
#28 = DIRECTION ( 'NONE',  ( 4.814824860968089633E-31, 1.000000000000000000, 1.355252715606880543E-16 ) ) ;
#29 = CIRCLE ( 'NONE', #222, 0.4000000000000000222 ) ;
#30 = PERSON_AND_ORGANIZATION ( #25, #14 ) ;
#31 = DIRECTION ( 'NONE',  ( -3.491481338843133355E-15, 1.224646799147353207E-16, -1.000000000000000000 ) ) ;
#32 = DIRECTION ( 'NONE',  ( 0.0000000000000000000, 1.000000000000000000, 0.0000000000000000000 ) ) ;
#33 = COORDINATED_UNIVERSAL_TIME_OFFSET ( 1, 0, .AHEAD. ) ;
#34 = CIRCLE ( 'NONE', #2, 0.4000000000000000222 ) ;
#35 = DIRECTION ( 'NONE',  ( 3.491481338843133355E-15, -1.224646799147353207E-16, 1.000000000000000000 ) ) ;
#36 = PERSON_AND_ORGANIZATION_ROLE ( 'classification_officer' ) ;
#37 = CARTESIAN_POINT ( 'NONE',  ( 2.280265551105238903E-14, -7.589415207398531038E-16, 6.530940107675848871 ) ) ;
#38 = APPROVAL_PERSON_ORGANIZATION ( #128, #171, #12 ) ;
#39 = EDGE_CURVE ( 'NONE', #59, #59, #139, .T. ) ;
#40 = CLOSED_SHELL ( 'NONE', ( #21, #126, #6 ) ) ;
#41 = EDGE_LOOP ( 'NONE', ( #177 ) ) ;
#42 = UNCERTAINTY_MEASURE_WITH_UNIT (LENGTH_MEASURE( 1.000000000000000082E-05 ), #156, 'distance_accuracy_value', 'NONE');
#43 = CC_DESIGN_DATE_AND_TIME_ASSIGNMENT ( #121, #17, ( #111 ) ) ;
#44 = CC_DESIGN_SECURITY_CLASSIFICATION ( #111, ( #212 ) ) ;
#45 = DATE_TIME_ROLE ( 'creation_date' ) ;
#46 = EDGE_LOOP ( 'NONE', ( #102 ) ) ;
#47 = FACE_OUTER_BOUND ( 'NONE', #153, .T. ) ;
#48 = CONICAL_SURFACE ( 'NONE', #224, 1732.050807568886512, 1.047197551196600074 ) ;
#49 = DIRECTION ( 'NONE',  ( -4.275831445896958607E-31, -1.000000000000000000, -1.224646799147353207E-16 ) ) ;
#50 = CARTESIAN_POINT ( 'NONE',  ( 2.280265551105238903E-14, -7.998094898288298714E-16, 6.530940107675848871 ) ) ;
#51 = MECHANICAL_CONTEXT ( 'NONE', #188, 'mechanical' ) ;
#52 = PLANE ( 'NONE',  #228 ) ;
#53 = ADVANCED_BREP_SHAPE_REPRESENTATION ( '955388', ( #145, #60, #85 ), #15 ) ;
#54 = CARTESIAN_POINT ( 'NONE',  ( 2.367552584576316605E-14, -0.4669872981077801688, 6.780940107675846207 ) ) ;
#55 = APPROVAL ( #116, 'UNSPECIFIED' ) ;
#56 = LOCAL_TIME ( 13, 11, 18.00000000000000000, #143 ) ;
#57 = EDGE_LOOP ( 'NONE', ( #226 ) ) ;
#58 = SHAPE_DEFINITION_REPRESENTATION ( #1, #53 ) ;
#59 = VERTEX_POINT ( 'NONE', #16 ) ;
#60 = MANIFOLD_SOLID_BREP ( 'Corps-Déplacer/Copier1[2]', #40 ) ;
#61 = ORIENTED_EDGE ( 'NONE', *, *, #165, .F. ) ;
#62 = PRODUCT ( '955388', '955388', '', ( #51 ) ) ;
#63 = AXIS2_PLACEMENT_3D ( 'NONE', #50, #183, #92 ) ;
#64 = ADVANCED_FACE ( 'NONE', ( #233, #239 ), #22, .T. ) ;
#65 = APPROVAL_ROLE ( '' ) ;
#66 = CARTESIAN_POINT ( 'NONE',  ( 1.047444401652940007E-13, -3.673940397442059178E-15, 30.00000000000000000 ) ) ;
#67 = CALENDAR_DATE ( 2021, 10, 11 ) ;
#68 = DIRECTION ( 'NONE',  ( -3.491481338843133355E-15, 1.247135059052984700E-16, -1.000000000000000000 ) ) ;
#69 = PERSON_AND_ORGANIZATION ( #25, #14 ) ;
#70 = DIRECTION ( 'NONE',  ( 0.0000000000000000000, -1.000000000000000000, 0.0000000000000000000 ) ) ;
#71 = EDGE_LOOP ( 'NONE', ( #4 ) ) ;
#72 = EDGE_CURVE ( 'NONE', #134, #134, #124, .T. ) ;
#73 = FACE_OUTER_BOUND ( 'NONE', #11, .T. ) ;
#74 = APPROVAL_PERSON_ORGANIZATION ( #206, #189, #150 ) ;
#75 = DIRECTION ( 'NONE',  ( 3.491481338843133355E-15, -1.224646799147353207E-16, 1.000000000000000000 ) ) ;
#76 = FACE_OUTER_BOUND ( 'NONE', #214, .T. ) ;
#77 = APPROVAL_STATUS ( 'not_yet_approved' ) ;
#78 = DIRECTION ( 'NONE',  ( -3.491481338843133355E-15, 1.224646799147353207E-16, -1.000000000000000000 ) ) ;
#79 = EDGE_LOOP ( 'NONE', ( #61 ) ) ;
#80 = CONICAL_SURFACE ( 'NONE', #196, 0.6000000000000000888, 0.7853981633974450594 ) ;
#81 = CARTESIAN_POINT ( 'NONE',  ( 1.042207179644675275E-13, -3.655570695454848748E-15, 29.84999999999999787 ) ) ;
#82 = CC_DESIGN_PERSON_AND_ORGANIZATION_ASSIGNMENT ( #108, #161, ( #24 ) ) ;
#83 = CARTESIAN_POINT ( 'NONE',  ( 2.280265551105238903E-14, 0.3999999999999991895, 6.530940107675848871 ) ) ;
#84 =( NAMED_UNIT ( * ) SI_UNIT ( $, .STERADIAN. ) SOLID_ANGLE_UNIT ( ) );
#85 = AXIS2_PLACEMENT_3D ( 'NONE', #160, #87, #225 ) ;
#86 = ADVANCED_FACE ( 'NONE', ( #47, #173 ), #80, .T. ) ;
#87 = DIRECTION ( 'NONE',  ( 0.0000000000000000000, 0.0000000000000000000, 1.000000000000000000 ) ) ;
#88 = CARTESIAN_POINT ( 'NONE',  ( 8.063230763406507612E-16, -2.828200636599735831E-17, 0.2309401076758490490 ) ) ;
#89 = DIRECTION ( 'NONE',  ( 0.0000000000000000000, -1.000000000000000000, 0.0000000000000000000 ) ) ;
#90 = CALENDAR_DATE ( 2021, 10, 11 ) ;
#91 = ADVANCED_FACE ( 'NONE', ( #95, #169 ), #9, .F. ) ;
#92 = DIRECTION ( 'NONE',  ( 0.0000000000000000000, 1.000000000000000000, 0.0000000000000000000 ) ) ;
#93 = DATE_AND_TIME ( #90, #217 ) ;
#94 = AXIS2_PLACEMENT_3D ( 'NONE', #113, #68, #70 ) ;
#95 = FACE_OUTER_BOUND ( 'NONE', #236, .T. ) ;
#96 = DIRECTION ( 'NONE',  ( -4.554490559825206315E-31, -1.000000000000000000, -1.281975124255702555E-16 ) ) ;
#97 = APPLICATION_CONTEXT ( 'configuration controlled 3d designs of mechanical parts and assemblies' ) ;
#98 = AXIS2_PLACEMENT_3D ( 'NONE', #26, #8, #89 ) ;
#99 = VERTEX_POINT ( 'NONE', #193 ) ;
#100 = EDGE_CURVE ( 'NONE', #99, #99, #29, .T. ) ;
#101 = COORDINATED_UNIVERSAL_TIME_OFFSET ( 1, 0, .AHEAD. ) ;
#102 = ORIENTED_EDGE ( 'NONE', *, *, #141, .F. ) ;
#103 = EDGE_CURVE ( 'NONE', #19, #19, #105, .T. ) ;
#104 = AXIS2_PLACEMENT_3D ( 'NONE', #127, #180, #147 ) ;
#105 = CIRCLE ( 'NONE', #63, 0.4000000000000000222 ) ;
#106 = ORIENTED_EDGE ( 'NONE', *, *, #72, .F. ) ;
#107 = PERSON_AND_ORGANIZATION ( #25, #14 ) ;
#108 = PERSON_AND_ORGANIZATION ( #25, #14 ) ;
#109 = PRODUCT_RELATED_PRODUCT_CATEGORY ( 'detail', '', ( #62 ) ) ;
#110 = DIRECTION ( 'NONE',  ( 4.275831445896958607E-31, 1.000000000000000000, 1.224646799147353454E-16 ) ) ;
#111 = SECURITY_CLASSIFICATION ( '', '', #200 ) ;
#112 = ORIENTED_EDGE ( 'NONE', *, *, #194, .F. ) ;
#113 = CARTESIAN_POINT ( 'NONE',  ( 2.538702338901229948E-14, -9.068084242983787536E-16, 7.271132486540521356 ) ) ;
#114 = APPROVAL_DATE_TIME ( #93, #55 ) ;
#115 = FACE_OUTER_BOUND ( 'NONE', #137, .T. ) ;
#116 = APPROVAL_STATUS ( 'not_yet_approved' ) ;
#117 = DIRECTION ( 'NONE',  ( 4.275831445896958607E-31, 1.000000000000000000, 1.224646799147353207E-16 ) ) ;
#118 = DIRECTION ( 'NONE',  ( -3.491481338843133355E-15, 1.224646799147353207E-16, -1.000000000000000000 ) ) ;
#119 = EDGE_LOOP ( 'NONE', ( #112 ) ) ;
#120 = COORDINATED_UNIVERSAL_TIME_OFFSET ( 1, 0, .AHEAD. ) ;
#121 = DATE_AND_TIME ( #207, #178 ) ;
#122 = ORIENTED_EDGE ( 'NONE', *, *, #194, .T. ) ;
#123 = ADVANCED_FACE ( 'NONE', ( #130, #163 ), #170, .T. ) ;
#124 = CIRCLE ( 'NONE', #138, 0.6000000000000000888 ) ;
#125 = ORIENTED_EDGE ( 'NONE', *, *, #39, .F. ) ;
#126 = ADVANCED_FACE ( 'NONE', ( #73, #167 ), #235, .T. ) ;
#127 = CARTESIAN_POINT ( 'NONE',  ( 2.599176569626780035E-14, -9.284094371601809440E-16, 7.444337567297410807 ) ) ;
#128 = PERSON_AND_ORGANIZATION ( #25, #14 ) ;
#129 = CALENDAR_DATE ( 2021, 10, 11 ) ;
#130 = FACE_OUTER_BOUND ( 'NONE', #41, .T. ) ;
#131 = DIRECTION ( 'NONE',  ( 0.0000000000000000000, 1.000000000000000000, 0.0000000000000000000 ) ) ;
#132 = PERSON_AND_ORGANIZATION ( #25, #14 ) ;
#133 = VERTEX_POINT ( 'NONE', #204 ) ;
#134 = VERTEX_POINT ( 'NONE', #190 ) ;
#135 = ORIENTED_EDGE ( 'NONE', *, *, #165, .T. ) ;
#136 = CC_DESIGN_PERSON_AND_ORGANIZATION_ASSIGNMENT ( #132, #197, ( #212 ) ) ;
#137 = EDGE_LOOP ( 'NONE', ( #184 ) ) ;
#138 = AXIS2_PLACEMENT_3D ( 'NONE', #66, #237, #199 ) ;
#139 = CIRCLE ( 'NONE', #182, 0.7499999999999998890 ) ;
#140 = DIRECTION ( 'NONE',  ( -3.491481338843133355E-15, 1.224646799147353207E-16, -1.000000000000000000 ) ) ;
#141 = EDGE_CURVE ( 'NONE', #154, #154, #205, .T. ) ;
#142 = AXIS2_PLACEMENT_3D ( 'NONE', #37, #140, #117 ) ;
#143 = COORDINATED_UNIVERSAL_TIME_OFFSET ( 1, 0, .AHEAD. ) ;
#144 = PLANE ( 'NONE',  #168 ) ;
#145 = MANIFOLD_SOLID_BREP ( 'Corps-Déplacer/Copier1[1]', #187 ) ;
#146 = DIRECTION ( 'NONE',  ( -3.491481338843133355E-15, 1.224646799147353207E-16, -1.000000000000000000 ) ) ;
#147 = DIRECTION ( 'NONE',  ( 0.0000000000000000000, -1.000000000000000000, 0.0000000000000000000 ) ) ;
#148 = CARTESIAN_POINT ( 'NONE',  ( 0.0000000000000000000, 0.0000000000000000000, 0.0000000000000000000 ) ) ;
#149 = CC_DESIGN_APPROVAL ( #55, ( #24 ) ) ;
#150 = APPROVAL_ROLE ( '' ) ;
#151 = CARTESIAN_POINT ( 'NONE',  ( 1.047444401652940007E-13, 4.499279347985518085E-33, 30.00000000000000000 ) ) ;
#152 = LOCAL_TIME ( 13, 11, 18.00000000000000000, #33 ) ;
#153 = EDGE_LOOP ( 'NONE', ( #125 ) ) ;
#154 = VERTEX_POINT ( 'NONE', #175 ) ;
#155 = CC_DESIGN_APPROVAL ( #189, ( #111 ) ) ;
#156 =( LENGTH_UNIT ( ) NAMED_UNIT ( * ) SI_UNIT ( .MILLI., .METRE. ) );
#157 = AXIS2_PLACEMENT_3D ( 'NONE', #148, #243, #110 ) ;
#158 =( NAMED_UNIT ( * ) PLANE_ANGLE_UNIT ( ) SI_UNIT ( $, .RADIAN. ) );
#159 = DESIGN_CONTEXT ( 'detailed design', #97, 'design' ) ;
#160 = CARTESIAN_POINT ( 'NONE',  ( 0.0000000000000000000, 0.0000000000000000000, 0.0000000000000000000 ) ) ;
#161 = PERSON_AND_ORGANIZATION_ROLE ( 'creator' ) ;
#162 = DIRECTION ( 'NONE',  ( 0.0000000000000000000, 1.000000000000000000, 0.0000000000000000000 ) ) ;
#163 = FACE_OUTER_BOUND ( 'NONE', #46, .T. ) ;
#164 = DIRECTION ( 'NONE',  ( 4.275831445896958607E-31, 1.000000000000000000, 1.224646799147353207E-16 ) ) ;
#165 = EDGE_CURVE ( 'NONE', #3, #3, #192, .T. ) ;
#166 = APPROVAL_DATE_TIME ( #234, #171 ) ;
#167 = FACE_OUTER_BOUND ( 'NONE', #211, .T. ) ;
#168 = AXIS2_PLACEMENT_3D ( 'NONE', #238, #75, #49 ) ;
#169 = FACE_OUTER_BOUND ( 'NONE', #79, .T. ) ;
#170 = CYLINDRICAL_SURFACE ( 'NONE', #157, 0.7499999999999984457 ) ;
#171 = APPROVAL ( #186, 'UNSPECIFIED' ) ;
#172 = CC_DESIGN_PERSON_AND_ORGANIZATION_ASSIGNMENT ( #181, #7, ( #212 ) ) ;
#173 = FACE_BOUND ( 'NONE', #20, .T. ) ;
#174 = DATE_AND_TIME ( #219, #208 ) ;
#175 = CARTESIAN_POINT ( 'NONE',  ( 2.538702338901229948E-14, -0.7499999999999993339, 7.271132486540521356 ) ) ;
#176 = DIRECTION ( 'NONE',  ( -3.491481338843133355E-15, 1.224646799147353207E-16, -1.000000000000000000 ) ) ;
#177 = ORIENTED_EDGE ( 'NONE', *, *, #39, .T. ) ;
#178 = LOCAL_TIME ( 13, 11, 18.00000000000000000, #120 ) ;
#179 = ADVANCED_FACE ( 'NONE', ( #215 ), #242, .F. ) ;
#180 = DIRECTION ( 'NONE',  ( 3.491481338843133355E-15, -1.247135059052984700E-16, 1.000000000000000000 ) ) ;
#181 = PERSON_AND_ORGANIZATION ( #25, #14 ) ;
#182 = AXIS2_PLACEMENT_3D ( 'NONE', #81, #176, #162 ) ;
#183 = DIRECTION ( 'NONE',  ( -3.491481338843133355E-15, 1.224646799147353207E-16, -1.000000000000000000 ) ) ;
#184 = ORIENTED_EDGE ( 'NONE', *, *, #100, .T. ) ;
#185 = CARTESIAN_POINT ( 'NONE',  ( 2.280265551105238903E-14, 2.999519565323703242E-33, 6.530940107675848871 ) ) ;
#186 = APPROVAL_STATUS ( 'not_yet_approved' ) ;
#187 = CLOSED_SHELL ( 'NONE', ( #123, #86, #195, #64, #179, #91 ) ) ;
#188 = APPLICATION_CONTEXT ( 'configuration controlled 3d designs of mechanical parts and assemblies' ) ;
#189 = APPROVAL ( #77, 'UNSPECIFIED' ) ;
#190 = CARTESIAN_POINT ( 'NONE',  ( 1.047444401652940007E-13, 0.5999999999999963141, 30.00000000000000000 ) ) ;
#191 = ORIENTED_EDGE ( 'NONE', *, *, #103, .F. ) ;
#192 = CIRCLE ( 'NONE', #98, 0.4669872981077793361 ) ;
#193 = CARTESIAN_POINT ( 'NONE',  ( 8.063230763406509585E-16, 0.3999999999999999667, 0.2309401076758491045 ) ) ;
#194 = EDGE_CURVE ( 'NONE', #133, #133, #34, .T. ) ;
#195 = ADVANCED_FACE ( 'NONE', ( #76 ), #52, .F. ) ;
#196 = AXIS2_PLACEMENT_3D ( 'NONE', #203, #118, #32 ) ;
#197 = PERSON_AND_ORGANIZATION_ROLE ( 'creator' ) ;
#198 = DIRECTION ( 'NONE',  ( 4.275831445896958607E-31, 1.000000000000000000, 1.224646799147353207E-16 ) ) ;
#199 = DIRECTION ( 'NONE',  ( 0.0000000000000000000, 1.000000000000000000, 0.0000000000000000000 ) ) ;
#200 = SECURITY_CLASSIFICATION_LEVEL ( 'unclassified' ) ;
#201 = DIRECTION ( 'NONE',  ( 3.491481338843133355E-15, -1.224646799147353207E-16, 1.000000000000000000 ) ) ;
#202 = EDGE_LOOP ( 'NONE', ( #135 ) ) ;
#203 = CARTESIAN_POINT ( 'NONE',  ( 1.047444401652940007E-13, -3.673940397442059178E-15, 30.00000000000000000 ) ) ;
#204 = CARTESIAN_POINT ( 'NONE',  ( 2.280265551105238903E-14, 0.3999999999999991895, 6.530940107675848871 ) ) ;
#205 = CIRCLE ( 'NONE', #94, 0.7499999999999984457 ) ;
#206 = PERSON_AND_ORGANIZATION ( #25, #14 ) ;
#207 = CALENDAR_DATE ( 2021, 10, 11 ) ;
#208 = LOCAL_TIME ( 13, 11, 18.00000000000000000, #101 ) ;
#209 = CC_DESIGN_DATE_AND_TIME_ASSIGNMENT ( #213, #45, ( #24 ) ) ;
#210 = CC_DESIGN_APPROVAL ( #171, ( #212 ) ) ;
#211 = EDGE_LOOP ( 'NONE', ( #216 ) ) ;
#212 = PRODUCT_DEFINITION_FORMATION_WITH_SPECIFIED_SOURCE ( 'ANY', '', #62, .NOT_KNOWN. ) ;
#213 = DATE_AND_TIME ( #67, #152 ) ;
#214 = EDGE_LOOP ( 'NONE', ( #106 ) ) ;
#215 = FACE_OUTER_BOUND ( 'NONE', #71, .T. ) ;
#216 = ORIENTED_EDGE ( 'NONE', *, *, #100, .F. ) ;
#217 = LOCAL_TIME ( 13, 11, 18.00000000000000000, #13 ) ;
#218 = CARTESIAN_POINT ( 'NONE',  ( 2.280265551105238903E-14, -7.998094898288298714E-16, 6.530940107675848871 ) ) ;
#219 = CALENDAR_DATE ( 2021, 10, 11 ) ;
#220 = DIRECTION ( 'NONE',  ( -3.491481338843133355E-15, 1.224646799147353207E-16, -1.000000000000000000 ) ) ;
#221 = APPROVAL_DATE_TIME ( #174, #189 ) ;
#222 = AXIS2_PLACEMENT_3D ( 'NONE', #88, #220, #28 ) ;
#223 = ORIENTED_EDGE ( 'NONE', *, *, #72, .T. ) ;
#224 = AXIS2_PLACEMENT_3D ( 'NONE', #18, #35, #96 ) ;
#225 = DIRECTION ( 'NONE',  ( 1.000000000000000000, 0.0000000000000000000, 0.0000000000000000000 ) ) ;
#226 = ORIENTED_EDGE ( 'NONE', *, *, #141, .T. ) ;
#227 = AXIS2_PLACEMENT_3D ( 'NONE', #231, #78, #198 ) ;
#228 = AXIS2_PLACEMENT_3D ( 'NONE', #151, #31, #164 ) ;
#229 = APPLICATION_PROTOCOL_DEFINITION ( 'international standard', 'config_control_design', 1994, #97 ) ;
#230 = FACE_OUTER_BOUND ( 'NONE', #119, .T. ) ;
#231 = CARTESIAN_POINT ( 'NONE',  ( 0.0000000000000000000, 0.0000000000000000000, 0.0000000000000000000 ) ) ;
#232 = CC_DESIGN_PERSON_AND_ORGANIZATION_ASSIGNMENT ( #69, #36, ( #111 ) ) ;
#233 = FACE_BOUND ( 'NONE', #202, .T. ) ;
#234 = DATE_AND_TIME ( #129, #56 ) ;
#235 = CYLINDRICAL_SURFACE ( 'NONE', #227, 0.4000000000000000222 ) ;
#236 = EDGE_LOOP ( 'NONE', ( #191 ) ) ;
#237 = DIRECTION ( 'NONE',  ( -3.491481338843133355E-15, 1.224646799147353207E-16, -1.000000000000000000 ) ) ;
#238 = CARTESIAN_POINT ( 'NONE',  ( 2.280265551105238903E-14, 2.999519565323703242E-33, 6.530940107675848871 ) ) ;
#239 = FACE_OUTER_BOUND ( 'NONE', #57, .T. ) ;
#240 = CC_DESIGN_PERSON_AND_ORGANIZATION_ASSIGNMENT ( #107, #27, ( #62 ) ) ;
#241 = AXIS2_PLACEMENT_3D ( 'NONE', #185, #201, #10 ) ;
#242 = PLANE ( 'NONE',  #241 ) ;
#243 = DIRECTION ( 'NONE',  ( -3.491481338843133355E-15, 1.224646799147353207E-16, -1.000000000000000000 ) ) ;
ENDSEC;
END-ISO-10303-21;
