ISO-10303-21;
HEADER;
FILE_DESCRIPTION (( 'STEP AP203' ),
    '1' );
FILE_NAME ('955387.step',
    '2021-11-10T12:11:17',
    ( '' ),
    ( '' ),
    'SwSTEP 2.0',
    'SolidWorks 2019',
    '' );
FILE_SCHEMA (( 'CONFIG_CONTROL_DESIGN' ));
ENDSEC;

DATA;
#1 = AXIS2_PLACEMENT_3D ( 'NONE', #36, #38, #145 ) ;
#2 = CC_DESIGN_PERSON_AND_ORGANIZATION_ASSIGNMENT ( #128, #91, ( #194 ) ) ;
#3 = ORIENTED_EDGE ( 'NONE', *, *, #57, .F. ) ;
#4 = FACE_OUTER_BOUND ( 'NONE', #43, .T. ) ;
#5 = CALENDAR_DATE ( 2021, 10, 11 ) ;
#6 = DIRECTION ( 'NONE',  ( 3.491481338843133355E-15, -1.224646799147353207E-16, 1.000000000000000000 ) ) ;
#7 = EDGE_LOOP ( 'NONE', ( #51 ) ) ;
#8 = APPROVAL_DATE_TIME ( #58, #134 ) ;
#9 = CONICAL_SURFACE ( 'NONE', #81, 1732.050807568885830, 1.047197551196599852 ) ;
#10 = CARTESIAN_POINT ( 'NONE',  ( 2.030822338159090709E-14, 0.3749999999999993339, 5.816506350946109016 ) ) ;
#11 = CARTESIAN_POINT ( 'NONE',  ( 2.153192106822594376E-14, -7.691066068204651656E-16, 6.166987298107778237 ) ) ;
#12 =( GEOMETRIC_REPRESENTATION_CONTEXT ( 3 ) GLOBAL_UNCERTAINTY_ASSIGNED_CONTEXT ( ( #138 ) ) GLOBAL_UNIT_ASSIGNED_CONTEXT ( ( #243, #118, #19 ) ) REPRESENTATION_CONTEXT ( 'NONE', 'WORKASPACE' ) );
#13 = DIRECTION ( 'NONE',  ( 1.000000000000000000, 0.0000000000000000000, 0.0000000000000000000 ) ) ;
#14 = CARTESIAN_POINT ( 'NONE',  ( 2.030822338159090709E-14, 2.812049592490973093E-33, 5.816506350946109016 ) ) ;
#15 = EDGE_CURVE ( 'NONE', #61, #61, #227, .T. ) ;
#16 = APPROVAL_ROLE ( '' ) ;
#17 = PERSON_AND_ORGANIZATION ( #211, #191 ) ;
#18 = ORIENTED_EDGE ( 'NONE', *, *, #173, .F. ) ;
#19 =( NAMED_UNIT ( * ) SI_UNIT ( $, .STERADIAN. ) SOLID_ANGLE_UNIT ( ) );
#20 = ORIENTED_EDGE ( 'NONE', *, *, #15, .T. ) ;
#21 = AXIS2_PLACEMENT_3D ( 'NONE', #92, #164, #239 ) ;
#22 = VERTEX_POINT ( 'NONE', #107 ) ;
#23 = PLANE ( 'NONE',  #181 ) ;
#24 = CC_DESIGN_APPROVAL ( #236, ( #162 ) ) ;
#25 = EDGE_CURVE ( 'NONE', #216, #216, #68, .T. ) ;
#26 = DIRECTION ( 'NONE',  ( 4.275831445896958607E-31, 1.000000000000000000, 1.224646799147353207E-16 ) ) ;
#27 = VERTEX_POINT ( 'NONE', #111 ) ;
#28 = APPROVAL_DATE_TIME ( #207, #242 ) ;
#29 = CARTESIAN_POINT ( 'NONE',  ( 1.047444401652940007E-13, -3.673940397442059178E-15, 30.00000000000000000 ) ) ;
#30 = CARTESIAN_POINT ( 'NONE',  ( 2.030822338159090709E-14, 2.812049592490973093E-33, 5.816506350946109016 ) ) ;
#31 = PERSON_AND_ORGANIZATION ( #211, #191 ) ;
#32 = AXIS2_PLACEMENT_3D ( 'NONE', #30, #6, #67 ) ;
#33 = PERSON_AND_ORGANIZATION ( #211, #191 ) ;
#34 = ADVANCED_BREP_SHAPE_REPRESENTATION ( '955387', ( #66, #153, #119 ), #12 ) ;
#35 = EDGE_LOOP ( 'NONE', ( #176 ) ) ;
#36 = CARTESIAN_POINT ( 'NONE',  ( 0.0000000000000000000, 0.0000000000000000000, 0.0000000000000000000 ) ) ;
#37 = DIRECTION ( 'NONE',  ( -3.491481338843133355E-15, 1.224646799147353207E-16, -1.000000000000000000 ) ) ;
#38 = DIRECTION ( 'NONE',  ( -3.491481338843133355E-15, 1.224646799147353207E-16, -1.000000000000000000 ) ) ;
#39 = CC_DESIGN_DATE_AND_TIME_ASSIGNMENT ( #168, #72, ( #54 ) ) ;
#40 = PERSON_AND_ORGANIZATION ( #211, #191 ) ;
#41 = AXIS2_PLACEMENT_3D ( 'NONE', #112, #185, #26 ) ;
#42 = AXIS2_PLACEMENT_3D ( 'NONE', #83, #213, #59 ) ;
#43 = EDGE_LOOP ( 'NONE', ( #198 ) ) ;
#44 = DESIGN_CONTEXT ( 'detailed design', #82, 'design' ) ;
#45 = PERSON_AND_ORGANIZATION_ROLE ( 'design_supplier' ) ;
#46 = AXIS2_PLACEMENT_3D ( 'NONE', #47, #106, #231 ) ;
#47 = CARTESIAN_POINT ( 'NONE',  ( 1.047444401652940007E-13, -3.673940397442059178E-15, 30.00000000000000000 ) ) ;
#48 = ORIENTED_EDGE ( 'NONE', *, *, #86, .F. ) ;
#49 = EDGE_LOOP ( 'NONE', ( #178 ) ) ;
#50 = DIRECTION ( 'NONE',  ( 3.491481338843133355E-15, -1.224646799147353207E-16, 1.000000000000000000 ) ) ;
#51 = ORIENTED_EDGE ( 'NONE', *, *, #121, .F. ) ;
#52 = APPROVAL_DATE_TIME ( #222, #236 ) ;
#53 = APPROVAL_PERSON_ORGANIZATION ( #31, #236, #150 ) ;
#54 = PRODUCT_DEFINITION ( 'UNKNOWN', '', #194, #44 ) ;
#55 = COORDINATED_UNIVERSAL_TIME_OFFSET ( 1, 0, .AHEAD. ) ;
#56 = LOCAL_TIME ( 13, 11, 17.00000000000000000, #188 ) ;
#57 = EDGE_CURVE ( 'NONE', #22, #22, #209, .T. ) ;
#58 = DATE_AND_TIME ( #80, #174 ) ;
#59 = DIRECTION ( 'NONE',  ( 4.275831445896959482E-31, 1.000000000000000000, 1.224646799147353207E-16 ) ) ;
#60 = PRODUCT_DEFINITION_SHAPE ( 'NONE', 'NONE',  #54 ) ;
#61 = VERTEX_POINT ( 'NONE', #183 ) ;
#62 = DIRECTION ( 'NONE',  ( 0.0000000000000000000, 1.000000000000000000, 0.0000000000000000000 ) ) ;
#63 = LOCAL_TIME ( 13, 11, 17.00000000000000000, #177 ) ;
#64 = ORIENTED_EDGE ( 'NONE', *, *, #15, .F. ) ;
#65 = FACE_OUTER_BOUND ( 'NONE', #35, .T. ) ;
#66 = MANIFOLD_SOLID_BREP ( 'Corps-Déplacer/Copier1[1]', #94 ) ;
#67 = DIRECTION ( 'NONE',  ( -4.275831445896958607E-31, -1.000000000000000000, -1.224646799147353207E-16 ) ) ;
#68 = CIRCLE ( 'NONE', #228, 0.3750000000000000555 ) ;
#69 = DIRECTION ( 'NONE',  ( 3.491481338843133355E-15, -1.224646799147353207E-16, 1.000000000000000000 ) ) ;
#70 = ORIENTED_EDGE ( 'NONE', *, *, #25, .T. ) ;
#71 = FACE_OUTER_BOUND ( 'NONE', #7, .T. ) ;
#72 = DATE_TIME_ROLE ( 'creation_date' ) ;
#73 = CIRCLE ( 'NONE', #212, 0.4419872981077785923 ) ;
#74 = CONICAL_SURFACE ( 'NONE', #46, 0.3999999999999989675, 0.7853981633974694843 ) ;
#75 = VERTEX_POINT ( 'NONE', #78 ) ;
#76 = ADVANCED_FACE ( 'NONE', ( #4, #137 ), #159, .T. ) ;
#77 = EDGE_LOOP ( 'NONE', ( #18 ) ) ;
#78 = CARTESIAN_POINT ( 'NONE',  ( 2.118109371630168412E-14, -0.4419872981077793694, 6.066506350946106352 ) ) ;
#79 = PERSON_AND_ORGANIZATION ( #211, #191 ) ;
#80 = CALENDAR_DATE ( 2021, 10, 11 ) ;
#81 = AXIS2_PLACEMENT_3D ( 'NONE', #129, #69, #147 ) ;
#82 = APPLICATION_CONTEXT ( 'configuration controlled 3d designs of mechanical parts and assemblies' ) ;
#83 = CARTESIAN_POINT ( 'NONE',  ( 0.0000000000000000000, 0.0000000000000000000, 0.0000000000000000000 ) ) ;
#84 = DIRECTION ( 'NONE',  ( 0.0000000000000000000, 1.000000000000000000, 0.0000000000000000000 ) ) ;
#85 = CIRCLE ( 'NONE', #157, 0.3749999999999998890 ) ;
#86 = EDGE_CURVE ( 'NONE', #90, #90, #187, .T. ) ;
#87 = DATE_AND_TIME ( #5, #63 ) ;
#88 = CARTESIAN_POINT ( 'NONE',  ( 1.043952920314096936E-13, -3.661693929450586610E-15, 29.90000000000000213 ) ) ;
#89 = LOCAL_TIME ( 13, 11, 17.00000000000000000, #202 ) ;
#90 = VERTEX_POINT ( 'NONE', #10 ) ;
#91 = PERSON_AND_ORGANIZATION_ROLE ( 'creator' ) ;
#92 = CARTESIAN_POINT ( 'NONE',  ( 2.030822338159090709E-14, -7.589415207398531038E-16, 5.816506350946109016 ) ) ;
#93 = CARTESIAN_POINT ( 'NONE',  ( 2.118109371630168412E-14, -7.565752756232479617E-16, 6.066506350946106352 ) ) ;
#94 = CLOSED_SHELL ( 'NONE', ( #190, #167, #117, #210, #146, #229 ) ) ;
#95 = CC_DESIGN_APPROVAL ( #242, ( #54 ) ) ;
#96 = CALENDAR_DATE ( 2021, 10, 11 ) ;
#97 = CALENDAR_DATE ( 2021, 10, 11 ) ;
#98 = DIRECTION ( 'NONE',  ( -3.491481338843133355E-15, 1.224646799147353207E-16, -1.000000000000000000 ) ) ;
#99 = VERTEX_POINT ( 'NONE', #170 ) ;
#100 = EDGE_LOOP ( 'NONE', ( #113 ) ) ;
#101 = CC_DESIGN_PERSON_AND_ORGANIZATION_ASSIGNMENT ( #193, #195, ( #162 ) ) ;
#102 = APPLICATION_PROTOCOL_DEFINITION ( 'international standard', 'config_control_design', 1994, #135 ) ;
#103 = CC_DESIGN_PERSON_AND_ORGANIZATION_ASSIGNMENT ( #79, #154, ( #105 ) ) ;
#104 = FACE_BOUND ( 'NONE', #240, .T. ) ;
#105 = PRODUCT ( '955387', '955387', '', ( #189 ) ) ;
#106 = DIRECTION ( 'NONE',  ( -3.491481338843133355E-15, 1.224646799147353207E-16, -1.000000000000000000 ) ) ;
#107 = CARTESIAN_POINT ( 'NONE',  ( 1.043952920314096936E-13, 0.4999999999999954481, 29.90000000000000213 ) ) ;
#108 = PLANE ( 'NONE',  #41 ) ;
#109 = CONICAL_SURFACE ( 'NONE', #149, 0.5999999999999980904, 0.5235987755982942637 ) ;
#110 = EDGE_LOOP ( 'NONE', ( #48 ) ) ;
#111 = CARTESIAN_POINT ( 'NONE',  ( 2.153192106822594376E-14, -0.4999999999999988343, 6.166987298107778237 ) ) ;
#112 = CARTESIAN_POINT ( 'NONE',  ( 1.047444401652940007E-13, 2.999519565323652267E-33, 30.00000000000000000 ) ) ;
#113 = ORIENTED_EDGE ( 'NONE', *, *, #132, .F. ) ;
#114 = FACE_OUTER_BOUND ( 'NONE', #110, .T. ) ;
#115 = APPROVAL_STATUS ( 'not_yet_approved' ) ;
#116 = DIRECTION ( 'NONE',  ( 0.0000000000000000000, 1.000000000000000000, 0.0000000000000000000 ) ) ;
#117 = ADVANCED_FACE ( 'NONE', ( #201 ), #108, .F. ) ;
#118 =( NAMED_UNIT ( * ) PLANE_ANGLE_UNIT ( ) SI_UNIT ( $, .RADIAN. ) );
#119 = AXIS2_PLACEMENT_3D ( 'NONE', #151, #223, #13 ) ;
#120 = ADVANCED_FACE ( 'NONE', ( #114 ), #23, .T. ) ;
#121 = EDGE_CURVE ( 'NONE', #27, #27, #238, .T. ) ;
#122 = APPROVAL_PERSON_ORGANIZATION ( #33, #134, #16 ) ;
#123 = EDGE_LOOP ( 'NONE', ( #144 ) ) ;
#124 = DIRECTION ( 'NONE',  ( -3.491481338843133355E-15, 1.224646799147353207E-16, -1.000000000000000000 ) ) ;
#125 = FACE_OUTER_BOUND ( 'NONE', #100, .T. ) ;
#126 = PLANE ( 'NONE',  #32 ) ;
#127 = FACE_OUTER_BOUND ( 'NONE', #49, .T. ) ;
#128 = PERSON_AND_ORGANIZATION ( #211, #191 ) ;
#129 = CARTESIAN_POINT ( 'NONE',  ( 3.491481338843133254E-12, -1.224646799147353249E-13, 1000.000000000000000 ) ) ;
#130 = APPROVAL_ROLE ( '' ) ;
#131 = FACE_OUTER_BOUND ( 'NONE', #235, .T. ) ;
#132 = EDGE_CURVE ( 'NONE', #75, #75, #73, .T. ) ;
#133 = CALENDAR_DATE ( 2021, 10, 11 ) ;
#134 = APPROVAL ( #115, 'UNSPECIFIED' ) ;
#135 = APPLICATION_CONTEXT ( 'configuration controlled 3d designs of mechanical parts and assemblies' ) ;
#136 = DIRECTION ( 'NONE',  ( -3.491481338843133355E-15, 1.224646799147353207E-16, -1.000000000000000000 ) ) ;
#137 = FACE_OUTER_BOUND ( 'NONE', #77, .T. ) ;
#138 = UNCERTAINTY_MEASURE_WITH_UNIT (LENGTH_MEASURE( 1.000000000000000082E-05 ), #243, 'distance_accuracy_value', 'NONE');
#139 = DATE_TIME_ROLE ( 'classification_date' ) ;
#140 = CLOSED_SHELL ( 'NONE', ( #206, #76, #120 ) ) ;
#141 = LOCAL_TIME ( 13, 11, 17.00000000000000000, #55 ) ;
#142 = DIRECTION ( 'NONE',  ( 3.491481338843133355E-15, -1.247135059052984700E-16, 1.000000000000000000 ) ) ;
#143 = DIRECTION ( 'NONE',  ( 0.0000000000000000000, -1.000000000000000000, 0.0000000000000000000 ) ) ;
#144 = ORIENTED_EDGE ( 'NONE', *, *, #173, .T. ) ;
#145 = DIRECTION ( 'NONE',  ( 4.275831445896958607E-31, 1.000000000000000000, 1.224646799147353207E-16 ) ) ;
#146 = ADVANCED_FACE ( 'NONE', ( #131 ), #126, .F. ) ;
#147 = DIRECTION ( 'NONE',  ( -4.554490559825208066E-31, -1.000000000000000000, -1.281975124255703048E-16 ) ) ;
#148 = EDGE_LOOP ( 'NONE', ( #3 ) ) ;
#149 = AXIS2_PLACEMENT_3D ( 'NONE', #160, #142, #220 ) ;
#150 = APPROVAL_ROLE ( '' ) ;
#151 = CARTESIAN_POINT ( 'NONE',  ( 0.0000000000000000000, 0.0000000000000000000, 0.0000000000000000000 ) ) ;
#152 = AXIS2_PLACEMENT_3D ( 'NONE', #11, #182, #234 ) ;
#153 = MANIFOLD_SOLID_BREP ( 'Corps-Déplacer/Copier1[2]', #140 ) ;
#154 = PERSON_AND_ORGANIZATION_ROLE ( 'design_owner' ) ;
#155 = CC_DESIGN_APPROVAL ( #134, ( #194 ) ) ;
#156 = COORDINATED_UNIVERSAL_TIME_OFFSET ( 1, 0, .AHEAD. ) ;
#157 = AXIS2_PLACEMENT_3D ( 'NONE', #199, #124, #179 ) ;
#158 = CARTESIAN_POINT ( 'NONE',  ( 2.030822338159090709E-14, -7.123165884906403123E-16, 5.816506350946109016 ) ) ;
#159 = CYLINDRICAL_SURFACE ( 'NONE', #42, 0.3750000000000000000 ) ;
#160 = CARTESIAN_POINT ( 'NONE',  ( 2.213666337548144147E-14, -7.907076196822671588E-16, 6.340192378864668576 ) ) ;
#161 = FACE_OUTER_BOUND ( 'NONE', #148, .T. ) ;
#162 = SECURITY_CLASSIFICATION ( '', '', #200 ) ;
#163 = EDGE_LOOP ( 'NONE', ( #237 ) ) ;
#164 = DIRECTION ( 'NONE',  ( -3.491481338843133355E-15, 1.224646799147353207E-16, -1.000000000000000000 ) ) ;
#165 = DIRECTION ( 'NONE',  ( 3.491481338843133355E-15, -1.247135059052984700E-16, 1.000000000000000000 ) ) ;
#166 = APPROVAL_PERSON_ORGANIZATION ( #17, #242, #130 ) ;
#167 = ADVANCED_FACE ( 'NONE', ( #161, #217 ), #74, .T. ) ;
#168 = DATE_AND_TIME ( #97, #56 ) ;
#169 = DIRECTION ( 'NONE',  ( 0.0000000000000000000, 1.000000000000000000, 0.0000000000000000000 ) ) ;
#170 = CARTESIAN_POINT ( 'NONE',  ( 7.559278840693604030E-16, 0.3749999999999998890, 0.2165063509461085667 ) ) ;
#171 = CC_DESIGN_SECURITY_CLASSIFICATION ( #162, ( #194 ) ) ;
#172 = CC_DESIGN_DATE_AND_TIME_ASSIGNMENT ( #87, #139, ( #162 ) ) ;
#173 = EDGE_CURVE ( 'NONE', #99, #99, #85, .T. ) ;
#174 = LOCAL_TIME ( 13, 11, 17.00000000000000000, #156 ) ;
#175 = EDGE_LOOP ( 'NONE', ( #20 ) ) ;
#176 = ORIENTED_EDGE ( 'NONE', *, *, #57, .T. ) ;
#177 = COORDINATED_UNIVERSAL_TIME_OFFSET ( 1, 0, .AHEAD. ) ;
#178 = ORIENTED_EDGE ( 'NONE', *, *, #25, .F. ) ;
#179 = DIRECTION ( 'NONE',  ( 5.135813185032630401E-31, 1.000000000000000000, 1.445602896647339656E-16 ) ) ;
#180 = AXIS2_PLACEMENT_3D ( 'NONE', #88, #37, #84 ) ;
#181 = AXIS2_PLACEMENT_3D ( 'NONE', #14, #50, #196 ) ;
#182 = DIRECTION ( 'NONE',  ( -3.491481338843133355E-15, 1.247135059052984700E-16, -1.000000000000000000 ) ) ;
#183 = CARTESIAN_POINT ( 'NONE',  ( 1.047444401652940007E-13, 0.3999999999999953038, 30.00000000000000000 ) ) ;
#184 = PERSON_AND_ORGANIZATION ( #211, #191 ) ;
#185 = DIRECTION ( 'NONE',  ( -3.491481338843133355E-15, 1.224646799147353207E-16, -1.000000000000000000 ) ) ;
#186 = PERSON_AND_ORGANIZATION_ROLE ( 'creator' ) ;
#187 = CIRCLE ( 'NONE', #205, 0.3750000000000000555 ) ;
#188 = COORDINATED_UNIVERSAL_TIME_OFFSET ( 1, 0, .AHEAD. ) ;
#189 = MECHANICAL_CONTEXT ( 'NONE', #135, 'mechanical' ) ;
#190 = ADVANCED_FACE ( 'NONE', ( #65, #71 ), #208, .T. ) ;
#191 = ORGANIZATION ( 'UNSPECIFIED', 'UNSPECIFIED', '' ) ;
#192 = PRODUCT_RELATED_PRODUCT_CATEGORY ( 'detail', '', ( #105 ) ) ;
#193 = PERSON_AND_ORGANIZATION ( #211, #191 ) ;
#194 = PRODUCT_DEFINITION_FORMATION_WITH_SPECIFIED_SOURCE ( 'ANY', '', #105, .NOT_KNOWN. ) ;
#195 = PERSON_AND_ORGANIZATION_ROLE ( 'classification_officer' ) ;
#196 = DIRECTION ( 'NONE',  ( -4.275831445896958607E-31, -1.000000000000000000, -1.224646799147353207E-16 ) ) ;
#197 = CARTESIAN_POINT ( 'NONE',  ( 2.030822338159090709E-14, 0.3749999999999993339, 5.816506350946109016 ) ) ;
#198 = ORIENTED_EDGE ( 'NONE', *, *, #86, .T. ) ;
#199 = CARTESIAN_POINT ( 'NONE',  ( 7.559278840693602058E-16, -2.651438096812253112E-17, 0.2165063509461085112 ) ) ;
#200 = SECURITY_CLASSIFICATION_LEVEL ( 'unclassified' ) ;
#201 = FACE_OUTER_BOUND ( 'NONE', #233, .T. ) ;
#202 = COORDINATED_UNIVERSAL_TIME_OFFSET ( 1, 0, .AHEAD. ) ;
#203 = SHAPE_DEFINITION_REPRESENTATION ( #60, #34 ) ;
#204 = DIRECTION ( 'NONE',  ( -3.491481338843133355E-15, 1.224646799147353207E-16, -1.000000000000000000 ) ) ;
#205 = AXIS2_PLACEMENT_3D ( 'NONE', #158, #136, #62 ) ;
#206 = ADVANCED_FACE ( 'NONE', ( #218 ), #9, .T. ) ;
#207 = DATE_AND_TIME ( #133, #141 ) ;
#208 = CYLINDRICAL_SURFACE ( 'NONE', #1, 0.4999999999999980571 ) ;
#209 = CIRCLE ( 'NONE', #180, 0.4999999999999991673 ) ;
#210 = ADVANCED_FACE ( 'NONE', ( #104, #219 ), #109, .T. ) ;
#211 = PERSON ( 'UNSPECIFIED', 'UNSPECIFIED', 'UNSPECIFIED', ('UNSPECIFIED'), ('UNSPECIFIED'), ('UNSPECIFIED') ) ;
#212 = AXIS2_PLACEMENT_3D ( 'NONE', #93, #165, #143 ) ;
#213 = DIRECTION ( 'NONE',  ( -3.491481338843133355E-15, 1.224646799147353207E-16, -1.000000000000000000 ) ) ;
#214 = CC_DESIGN_PERSON_AND_ORGANIZATION_ASSIGNMENT ( #184, #45, ( #194 ) ) ;
#215 = TOROIDAL_SURFACE ( 'NONE', #21, 0.8750000000000000000, 0.5000000000000000000 ) ;
#216 = VERTEX_POINT ( 'NONE', #197 ) ;
#217 = FACE_BOUND ( 'NONE', #175, .T. ) ;
#218 = FACE_OUTER_BOUND ( 'NONE', #123, .T. ) ;
#219 = FACE_OUTER_BOUND ( 'NONE', #163, .T. ) ;
#220 = DIRECTION ( 'NONE',  ( 0.0000000000000000000, -1.000000000000000000, 0.0000000000000000000 ) ) ;
#221 = APPROVAL_STATUS ( 'not_yet_approved' ) ;
#222 = DATE_AND_TIME ( #96, #89 ) ;
#223 = DIRECTION ( 'NONE',  ( 0.0000000000000000000, 0.0000000000000000000, 1.000000000000000000 ) ) ;
#224 = CC_DESIGN_PERSON_AND_ORGANIZATION_ASSIGNMENT ( #40, #186, ( #54 ) ) ;
#225 = APPROVAL_STATUS ( 'not_yet_approved' ) ;
#226 = APPLICATION_PROTOCOL_DEFINITION ( 'international standard', 'config_control_design', 1994, #82 ) ;
#227 = CIRCLE ( 'NONE', #230, 0.3999999999999989675 ) ;
#228 = AXIS2_PLACEMENT_3D ( 'NONE', #241, #204, #116 ) ;
#229 = ADVANCED_FACE ( 'NONE', ( #127, #125 ), #215, .F. ) ;
#230 = AXIS2_PLACEMENT_3D ( 'NONE', #29, #98, #169 ) ;
#231 = DIRECTION ( 'NONE',  ( 0.0000000000000000000, 1.000000000000000000, 0.0000000000000000000 ) ) ;
#232 = ORIENTED_EDGE ( 'NONE', *, *, #132, .T. ) ;
#233 = EDGE_LOOP ( 'NONE', ( #64 ) ) ;
#234 = DIRECTION ( 'NONE',  ( 0.0000000000000000000, -1.000000000000000000, 0.0000000000000000000 ) ) ;
#235 = EDGE_LOOP ( 'NONE', ( #70 ) ) ;
#236 = APPROVAL ( #221, 'UNSPECIFIED' ) ;
#237 = ORIENTED_EDGE ( 'NONE', *, *, #121, .T. ) ;
#238 = CIRCLE ( 'NONE', #152, 0.4999999999999980571 ) ;
#239 = DIRECTION ( 'NONE',  ( 4.275831445896958607E-31, 1.000000000000000000, 1.224646799147353207E-16 ) ) ;
#240 = EDGE_LOOP ( 'NONE', ( #232 ) ) ;
#241 = CARTESIAN_POINT ( 'NONE',  ( 2.030822338159090709E-14, -7.123165884906403123E-16, 5.816506350946109016 ) ) ;
#242 = APPROVAL ( #225, 'UNSPECIFIED' ) ;
#243 =( LENGTH_UNIT ( ) NAMED_UNIT ( * ) SI_UNIT ( .MILLI., .METRE. ) );
ENDSEC;
END-ISO-10303-21;
