ISO-10303-21;
HEADER;
FILE_DESCRIPTION (( 'STEP AP203' ),
    '1' );
FILE_NAME ('955386.step',
    '2021-11-10T12:11:17',
    ( '' ),
    ( '' ),
    'SwSTEP 2.0',
    'SolidWorks 2019',
    '' );
FILE_SCHEMA (( 'CONFIG_CONTROL_DESIGN' ));
ENDSEC;

DATA;
#1 = EDGE_LOOP ( 'NONE', ( #100 ) ) ;
#2 = APPROVAL_ROLE ( '' ) ;
#3 = DIRECTION ( 'NONE',  ( -4.275831445896958607E-31, -1.000000000000000000, -1.224646799147353207E-16 ) ) ;
#4 = CIRCLE ( 'NONE', #78, 0.3499999999999998668 ) ;
#5 = APPROVAL_STATUS ( 'not_yet_approved' ) ;
#6 = CC_DESIGN_PERSON_AND_ORGANIZATION_ASSIGNMENT ( #80, #157, ( #125 ) ) ;
#7 = FACE_OUTER_BOUND ( 'NONE', #61, .T. ) ;
#8 = VERTEX_POINT ( 'NONE', #114 ) ;
#9 = CONICAL_SURFACE ( 'NONE', #238, 0.3999999999999989675, 0.7853981633974694843 ) ;
#10 = CARTESIAN_POINT ( 'NONE',  ( 1.043952920314096936E-13, -3.661693929450586610E-15, 29.90000000000000213 ) ) ;
#11 = CARTESIAN_POINT ( 'NONE',  ( 3.491481338843133254E-12, -1.224646799147353249E-13, 1000.000000000000000 ) ) ;
#12 = DIRECTION ( 'NONE',  ( 1.000000000000000000, 0.0000000000000000000, 0.0000000000000000000 ) ) ;
#13 = APPROVAL ( #5, 'UNSPECIFIED' ) ;
#14 = VERTEX_POINT ( 'NONE', #94 ) ;
#15 = LOCAL_TIME ( 13, 11, 17.00000000000000000, #178 ) ;
#16 = APPROVAL_DATE_TIME ( #137, #60 ) ;
#17 = AXIS2_PLACEMENT_3D ( 'NONE', #175, #67, #20 ) ;
#18 = EDGE_LOOP ( 'NONE', ( #192 ) ) ;
#19 = CALENDAR_DATE ( 2021, 10, 11 ) ;
#20 = DIRECTION ( 'NONE',  ( -4.275831445896958607E-31, -1.000000000000000000, -1.224646799147353207E-16 ) ) ;
#21 = LOCAL_TIME ( 13, 11, 17.00000000000000000, #57 ) ;
#22 = EDGE_LOOP ( 'NONE', ( #81 ) ) ;
#23 = AXIS2_PLACEMENT_3D ( 'NONE', #213, #44, #208 ) ;
#24 = CARTESIAN_POINT ( 'NONE',  ( 7.055326917980694531E-16, -2.474675557024769161E-17, 0.2020725942163679179 ) ) ;
#25 = DIRECTION ( 'NONE',  ( 0.0000000000000000000, -1.000000000000000000, 0.0000000000000000000 ) ) ;
#26 = APPROVAL_PERSON_ORGANIZATION ( #118, #60, #211 ) ;
#27 = CARTESIAN_POINT ( 'NONE',  ( 2.223745376002402495E-14, -7.943077884925674581E-16, 6.369059892324150596 ) ) ;
#28 = EDGE_CURVE ( 'NONE', #93, #93, #40, .T. ) ;
#29 = CARTESIAN_POINT ( 'NONE',  ( 1.047444401652940007E-13, 2.999519565323652267E-33, 30.00000000000000000 ) ) ;
#30 = VERTEX_POINT ( 'NONE', #109 ) ;
#31 = PERSON_AND_ORGANIZATION_ROLE ( 'design_supplier' ) ;
#32 = FACE_OUTER_BOUND ( 'NONE', #212, .T. ) ;
#33 = DIRECTION ( 'NONE',  ( 0.0000000000000000000, 1.000000000000000000, 0.0000000000000000000 ) ) ;
#34 = PERSON ( 'UNSPECIFIED', 'UNSPECIFIED', 'UNSPECIFIED', ('UNSPECIFIED'), ('UNSPECIFIED'), ('UNSPECIFIED') ) ;
#35 = EDGE_LOOP ( 'NONE', ( #160 ) ) ;
#36 = CALENDAR_DATE ( 2021, 10, 11 ) ;
#37 = CIRCLE ( 'NONE', #99, 0.4169872981077787921 ) ;
#38 = CC_DESIGN_PERSON_AND_ORGANIZATION_ASSIGNMENT ( #141, #219, ( #207 ) ) ;
#39 = DATE_AND_TIME ( #36, #21 ) ;
#40 = CIRCLE ( 'NONE', #112, 0.3500000000000000888 ) ;
#41 = DIRECTION ( 'NONE',  ( 0.0000000000000000000, 1.000000000000000000, 0.0000000000000000000 ) ) ;
#42 = EDGE_LOOP ( 'NONE', ( #159 ) ) ;
#43 = AXIS2_PLACEMENT_3D ( 'NONE', #10, #129, #92 ) ;
#44 = DIRECTION ( 'NONE',  ( -3.491481338843133355E-15, 1.224646799147353207E-16, -1.000000000000000000 ) ) ;
#45 = CALENDAR_DATE ( 2021, 10, 11 ) ;
#46 = DIRECTION ( 'NONE',  ( 3.491481338843133355E-15, -1.224646799147353207E-16, 1.000000000000000000 ) ) ;
#47 = VERTEX_POINT ( 'NONE', #187 ) ;
#48 = ADVANCED_FACE ( 'NONE', ( #177 ), #139, .T. ) ;
#49 = DIRECTION ( 'NONE',  ( -3.491481338843133355E-15, 1.224646799147353207E-16, -1.000000000000000000 ) ) ;
#50 = DIRECTION ( 'NONE',  ( 4.275831445896958607E-31, 1.000000000000000000, 1.224646799147353207E-16 ) ) ;
#51 = AXIS2_PLACEMENT_3D ( 'NONE', #54, #185, #89 ) ;
#52 = PRODUCT_DEFINITION_SHAPE ( 'NONE', 'NONE',  #125 ) ;
#53 = EDGE_LOOP ( 'NONE', ( #241 ) ) ;
#54 = CARTESIAN_POINT ( 'NONE',  ( 2.025782818931961851E-14, -7.589415207398531038E-16, 5.802072594216368451 ) ) ;
#55 = UNCERTAINTY_MEASURE_WITH_UNIT (LENGTH_MEASURE( 1.000000000000000082E-05 ), #133, 'distance_accuracy_value', 'NONE');
#56 = APPROVAL ( #97, 'UNSPECIFIED' ) ;
#57 = COORDINATED_UNIVERSAL_TIME_OFFSET ( 1, 0, .AHEAD. ) ;
#58 = DATE_AND_TIME ( #19, #161 ) ;
#59 = DATE_TIME_ROLE ( 'classification_date' ) ;
#60 = APPROVAL ( #98, 'UNSPECIFIED' ) ;
#61 = EDGE_LOOP ( 'NONE', ( #242 ) ) ;
#62 = CLOSED_SHELL ( 'NONE', ( #158, #240, #48 ) ) ;
#63 = CIRCLE ( 'NONE', #230, 0.3999999999999989675 ) ;
#64 = EDGE_CURVE ( 'NONE', #142, #142, #173, .T. ) ;
#65 = CARTESIAN_POINT ( 'NONE',  ( 1.047444401652940007E-13, -3.673940397442059178E-15, 30.00000000000000000 ) ) ;
#66 = LOCAL_TIME ( 13, 11, 17.00000000000000000, #227 ) ;
#67 = DIRECTION ( 'NONE',  ( 3.491481338843133355E-15, -1.224646799147353207E-16, 1.000000000000000000 ) ) ;
#68 = AXIS2_PLACEMENT_3D ( 'NONE', #83, #46, #3 ) ;
#69 = CARTESIAN_POINT ( 'NONE',  ( 2.113069852403039238E-14, -7.547751912180977628E-16, 6.052072594216365786 ) ) ;
#70 = DIRECTION ( 'NONE',  ( 3.491481338843133355E-15, -1.224646799147353207E-16, 1.000000000000000000 ) ) ;
#71 = DIRECTION ( 'NONE',  ( 0.0000000000000000000, -1.000000000000000000, 0.0000000000000000000 ) ) ;
#72 = AXIS2_PLACEMENT_3D ( 'NONE', #29, #123, #200 ) ;
#73 = CARTESIAN_POINT ( 'NONE',  ( 0.0000000000000000000, 0.0000000000000000000, 0.0000000000000000000 ) ) ;
#74 = FACE_OUTER_BOUND ( 'NONE', #1, .T. ) ;
#75 = AXIS2_PLACEMENT_3D ( 'NONE', #27, #201, #71 ) ;
#76 = CARTESIAN_POINT ( 'NONE',  ( 0.0000000000000000000, 0.0000000000000000000, 0.0000000000000000000 ) ) ;
#77 =( NAMED_UNIT ( * ) SI_UNIT ( $, .STERADIAN. ) SOLID_ANGLE_UNIT ( ) );
#78 = AXIS2_PLACEMENT_3D ( 'NONE', #24, #105, #168 ) ;
#79 = APPLICATION_PROTOCOL_DEFINITION ( 'international standard', 'config_control_design', 1994, #237 ) ;
#80 = PERSON_AND_ORGANIZATION ( #34, #218 ) ;
#81 = ORIENTED_EDGE ( 'NONE', *, *, #143, .F. ) ;
#82 = CONICAL_SURFACE ( 'NONE', #75, 0.5999999999999982014, 0.5235987755982938197 ) ;
#83 = CARTESIAN_POINT ( 'NONE',  ( 2.025782818931961851E-14, 2.624579619658241235E-33, 5.802072594216368451 ) ) ;
#84 = ORIENTED_EDGE ( 'NONE', *, *, #120, .T. ) ;
#85 = CIRCLE ( 'NONE', #43, 0.4999999999999991673 ) ;
#86 = APPROVAL_DATE_TIME ( #87, #13 ) ;
#87 = DATE_AND_TIME ( #147, #181 ) ;
#88 = PRODUCT_RELATED_PRODUCT_CATEGORY ( 'detail', '', ( #144 ) ) ;
#89 = DIRECTION ( 'NONE',  ( 4.275831445896958607E-31, 1.000000000000000000, 1.224646799147353207E-16 ) ) ;
#90 = PERSON_AND_ORGANIZATION ( #34, #218 ) ;
#91 = SECURITY_CLASSIFICATION_LEVEL ( 'unclassified' ) ;
#92 = DIRECTION ( 'NONE',  ( 0.0000000000000000000, 1.000000000000000000, 0.0000000000000000000 ) ) ;
#93 = VERTEX_POINT ( 'NONE', #235 ) ;
#94 = CARTESIAN_POINT ( 'NONE',  ( 1.043952920314096936E-13, 0.4999999999999954481, 29.90000000000000213 ) ) ;
#95 = TOROIDAL_SURFACE ( 'NONE', #51, 0.8500000000000001998, 0.4999999999999998890 ) ;
#96 = MECHANICAL_CONTEXT ( 'NONE', #234, 'mechanical' ) ;
#97 = APPROVAL_STATUS ( 'not_yet_approved' ) ;
#98 = APPROVAL_STATUS ( 'not_yet_approved' ) ;
#99 = AXIS2_PLACEMENT_3D ( 'NONE', #69, #119, #197 ) ;
#100 = ORIENTED_EDGE ( 'NONE', *, *, #215, .F. ) ;
#101 = SHAPE_DEFINITION_REPRESENTATION ( #52, #138 ) ;
#102 = FACE_OUTER_BOUND ( 'NONE', #42, .T. ) ;
#103 = EDGE_LOOP ( 'NONE', ( #121 ) ) ;
#104 = DIRECTION ( 'NONE',  ( -3.491481338843133355E-15, 1.224646799147353207E-16, -1.000000000000000000 ) ) ;
#105 = DIRECTION ( 'NONE',  ( -3.491481338843133355E-15, 1.224646799147353207E-16, -1.000000000000000000 ) ) ;
#106 = COORDINATED_UNIVERSAL_TIME_OFFSET ( 1, 0, .AHEAD. ) ;
#107 = DIRECTION ( 'NONE',  ( 4.275831445896958607E-31, 1.000000000000000000, 1.224646799147353207E-16 ) ) ;
#108 = CC_DESIGN_DATE_AND_TIME_ASSIGNMENT ( #183, #203, ( #125 ) ) ;
#109 = CARTESIAN_POINT ( 'NONE',  ( 1.047444401652940007E-13, 0.3999999999999953038, 30.00000000000000000 ) ) ;
#110 = FACE_OUTER_BOUND ( 'NONE', #196, .T. ) ;
#111 = APPROVAL_DATE_TIME ( #39, #56 ) ;
#112 = AXIS2_PLACEMENT_3D ( 'NONE', #180, #226, #41 ) ;
#113 = CC_DESIGN_PERSON_AND_ORGANIZATION_ASSIGNMENT ( #90, #163, ( #115 ) ) ;
#114 = CARTESIAN_POINT ( 'NONE',  ( 2.113069852403039238E-14, -0.4169872981077795693, 6.052072594216365786 ) ) ;
#115 = PRODUCT_DEFINITION_FORMATION_WITH_SPECIFIED_SOURCE ( 'ANY', '', #144, .NOT_KNOWN. ) ;
#116 = ADVANCED_FACE ( 'NONE', ( #102 ), #229, .F. ) ;
#117 = ORIENTED_EDGE ( 'NONE', *, *, #136, .F. ) ;
#118 = PERSON_AND_ORGANIZATION ( #34, #218 ) ;
#119 = DIRECTION ( 'NONE',  ( 3.491481338843133355E-15, -1.247135059052984700E-16, 1.000000000000000000 ) ) ;
#120 = EDGE_CURVE ( 'NONE', #30, #30, #63, .T. ) ;
#121 = ORIENTED_EDGE ( 'NONE', *, *, #64, .F. ) ;
#122 = DIRECTION ( 'NONE',  ( -4.554490559825208066E-31, -1.000000000000000000, -1.281975124255703048E-16 ) ) ;
#123 = DIRECTION ( 'NONE',  ( -3.491481338843133355E-15, 1.224646799147353207E-16, -1.000000000000000000 ) ) ;
#124 = CONICAL_SURFACE ( 'NONE', #176, 1732.050807568885830, 1.047197551196599852 ) ;
#125 = PRODUCT_DEFINITION ( 'UNKNOWN', '', #115, #154 ) ;
#126 = COORDINATED_UNIVERSAL_TIME_OFFSET ( 1, 0, .AHEAD. ) ;
#127 = CARTESIAN_POINT ( 'NONE',  ( 2.163271145276852724E-14, -0.4999999999999989453, 6.195854811567260256 ) ) ;
#128 = EDGE_LOOP ( 'NONE', ( #195 ) ) ;
#129 = DIRECTION ( 'NONE',  ( -3.491481338843133355E-15, 1.224646799147353207E-16, -1.000000000000000000 ) ) ;
#130 = VERTEX_POINT ( 'NONE', #205 ) ;
#131 = DIRECTION ( 'NONE',  ( 0.0000000000000000000, 0.0000000000000000000, 1.000000000000000000 ) ) ;
#132 = CC_DESIGN_DATE_AND_TIME_ASSIGNMENT ( #58, #59, ( #207 ) ) ;
#133 =( LENGTH_UNIT ( ) NAMED_UNIT ( * ) SI_UNIT ( .MILLI., .METRE. ) );
#134 = PERSON_AND_ORGANIZATION_ROLE ( 'design_owner' ) ;
#135 = CLOSED_SHELL ( 'NONE', ( #165, #225, #182, #223, #116, #210 ) ) ;
#136 = EDGE_CURVE ( 'NONE', #47, #47, #236, .T. ) ;
#137 = DATE_AND_TIME ( #194, #66 ) ;
#138 = ADVANCED_BREP_SHAPE_REPRESENTATION ( '955386', ( #228, #156, #199 ), #222 ) ;
#139 = PLANE ( 'NONE',  #17 ) ;
#140 = ORIENTED_EDGE ( 'NONE', *, *, #150, .T. ) ;
#141 = PERSON_AND_ORGANIZATION ( #34, #218 ) ;
#142 = VERTEX_POINT ( 'NONE', #127 ) ;
#143 = EDGE_CURVE ( 'NONE', #8, #8, #37, .T. ) ;
#144 = PRODUCT ( '955386', '955386', '', ( #96 ) ) ;
#145 = AXIS2_PLACEMENT_3D ( 'NONE', #214, #243, #25 ) ;
#146 = PERSON_AND_ORGANIZATION ( #34, #218 ) ;
#147 = CALENDAR_DATE ( 2021, 10, 11 ) ;
#148 = FACE_BOUND ( 'NONE', #164, .T. ) ;
#149 = CC_DESIGN_APPROVAL ( #13, ( #115 ) ) ;
#150 = EDGE_CURVE ( 'NONE', #130, #130, #4, .T. ) ;
#151 = CC_DESIGN_PERSON_AND_ORGANIZATION_ASSIGNMENT ( #146, #31, ( #115 ) ) ;
#152 = PERSON_AND_ORGANIZATION ( #34, #218 ) ;
#153 = APPROVAL_ROLE ( '' ) ;
#154 = DESIGN_CONTEXT ( 'detailed design', #237, 'design' ) ;
#155 = CC_DESIGN_APPROVAL ( #56, ( #125 ) ) ;
#156 = MANIFOLD_SOLID_BREP ( 'Corps-Déplacer/Copier1[2]', #62 ) ;
#157 = PERSON_AND_ORGANIZATION_ROLE ( 'creator' ) ;
#158 = ADVANCED_FACE ( 'NONE', ( #32 ), #124, .T. ) ;
#159 = ORIENTED_EDGE ( 'NONE', *, *, #28, .T. ) ;
#160 = ORIENTED_EDGE ( 'NONE', *, *, #28, .F. ) ;
#161 = LOCAL_TIME ( 13, 11, 17.00000000000000000, #106 ) ;
#162 = AXIS2_PLACEMENT_3D ( 'NONE', #190, #166, #50 ) ;
#163 = PERSON_AND_ORGANIZATION_ROLE ( 'creator' ) ;
#164 = EDGE_LOOP ( 'NONE', ( #84 ) ) ;
#165 = ADVANCED_FACE ( 'NONE', ( #217, #189 ), #202, .T. ) ;
#166 = DIRECTION ( 'NONE',  ( -3.491481338843133355E-15, 1.224646799147353207E-16, -1.000000000000000000 ) ) ;
#167 = CC_DESIGN_SECURITY_CLASSIFICATION ( #207, ( #115 ) ) ;
#168 = DIRECTION ( 'NONE',  ( 5.502656983963533136E-31, 1.000000000000000000, 1.548860246407864076E-16 ) ) ;
#169 = FACE_BOUND ( 'NONE', #18, .T. ) ;
#170 = CYLINDRICAL_SURFACE ( 'NONE', #162, 0.3499999999999999778 ) ;
#171 = PERSON_AND_ORGANIZATION ( #34, #218 ) ;
#172 = APPROVAL_PERSON_ORGANIZATION ( #171, #56, #153 ) ;
#173 = CIRCLE ( 'NONE', #145, 0.4999999999999981681 ) ;
#174 = ORIENTED_EDGE ( 'NONE', *, *, #120, .F. ) ;
#175 = CARTESIAN_POINT ( 'NONE',  ( 2.025782818931961851E-14, 2.624579619658241235E-33, 5.802072594216368451 ) ) ;
#176 = AXIS2_PLACEMENT_3D ( 'NONE', #11, #70, #122 ) ;
#177 = FACE_OUTER_BOUND ( 'NONE', #209, .T. ) ;
#178 = COORDINATED_UNIVERSAL_TIME_OFFSET ( 1, 0, .AHEAD. ) ;
#179 = DIRECTION ( 'NONE',  ( 0.0000000000000000000, 1.000000000000000000, 0.0000000000000000000 ) ) ;
#180 = CARTESIAN_POINT ( 'NONE',  ( 2.025782818931961851E-14, -7.105489630927655345E-16, 5.802072594216368451 ) ) ;
#181 = LOCAL_TIME ( 13, 11, 17.00000000000000000, #126 ) ;
#182 = ADVANCED_FACE ( 'NONE', ( #198 ), #233, .F. ) ;
#183 = DATE_AND_TIME ( #45, #15 ) ;
#184 = FACE_OUTER_BOUND ( 'NONE', #35, .T. ) ;
#185 = DIRECTION ( 'NONE',  ( -3.491481338843133355E-15, 1.224646799147353207E-16, -1.000000000000000000 ) ) ;
#186 = PERSON_AND_ORGANIZATION ( #34, #218 ) ;
#187 = CARTESIAN_POINT ( 'NONE',  ( 2.025782818931961851E-14, 0.3499999999999994227, 5.802072594216368451 ) ) ;
#188 = CC_DESIGN_APPROVAL ( #60, ( #207 ) ) ;
#189 = FACE_OUTER_BOUND ( 'NONE', #103, .T. ) ;
#190 = CARTESIAN_POINT ( 'NONE',  ( 0.0000000000000000000, 0.0000000000000000000, 0.0000000000000000000 ) ) ;
#191 = CC_DESIGN_PERSON_AND_ORGANIZATION_ASSIGNMENT ( #152, #134, ( #144 ) ) ;
#192 = ORIENTED_EDGE ( 'NONE', *, *, #143, .T. ) ;
#193 = APPROVAL_PERSON_ORGANIZATION ( #186, #13, #2 ) ;
#194 = CALENDAR_DATE ( 2021, 10, 11 ) ;
#195 = ORIENTED_EDGE ( 'NONE', *, *, #215, .T. ) ;
#196 = EDGE_LOOP ( 'NONE', ( #231 ) ) ;
#197 = DIRECTION ( 'NONE',  ( 0.0000000000000000000, -1.000000000000000000, 0.0000000000000000000 ) ) ;
#198 = FACE_OUTER_BOUND ( 'NONE', #224, .T. ) ;
#199 = AXIS2_PLACEMENT_3D ( 'NONE', #76, #131, #12 ) ;
#200 = DIRECTION ( 'NONE',  ( 4.275831445896958607E-31, 1.000000000000000000, 1.224646799147353207E-16 ) ) ;
#201 = DIRECTION ( 'NONE',  ( 3.491481338843133355E-15, -1.247135059052984700E-16, 1.000000000000000000 ) ) ;
#202 = CYLINDRICAL_SURFACE ( 'NONE', #232, 0.4999999999999981681 ) ;
#203 = DATE_TIME_ROLE ( 'creation_date' ) ;
#204 = DIRECTION ( 'NONE',  ( -3.491481338843133355E-15, 1.224646799147353207E-16, -1.000000000000000000 ) ) ;
#205 = CARTESIAN_POINT ( 'NONE',  ( 7.055326917980696503E-16, 0.3499999999999998668, 0.2020725942163679734 ) ) ;
#206 = APPLICATION_PROTOCOL_DEFINITION ( 'international standard', 'config_control_design', 1994, #234 ) ;
#207 = SECURITY_CLASSIFICATION ( '', '', #91 ) ;
#208 = DIRECTION ( 'NONE',  ( 0.0000000000000000000, 1.000000000000000000, 0.0000000000000000000 ) ) ;
#209 = EDGE_LOOP ( 'NONE', ( #117 ) ) ;
#210 = ADVANCED_FACE ( 'NONE', ( #184, #220 ), #95, .F. ) ;
#211 = APPROVAL_ROLE ( '' ) ;
#212 = EDGE_LOOP ( 'NONE', ( #140 ) ) ;
#213 = CARTESIAN_POINT ( 'NONE',  ( 2.025782818931961851E-14, -7.105489630927655345E-16, 5.802072594216368451 ) ) ;
#214 = CARTESIAN_POINT ( 'NONE',  ( 2.163271145276852724E-14, -7.727067756307653663E-16, 6.195854811567260256 ) ) ;
#215 = EDGE_CURVE ( 'NONE', #14, #14, #85, .T. ) ;
#216 = FACE_OUTER_BOUND ( 'NONE', #53, .T. ) ;
#217 = FACE_OUTER_BOUND ( 'NONE', #128, .T. ) ;
#218 = ORGANIZATION ( 'UNSPECIFIED', 'UNSPECIFIED', '' ) ;
#219 = PERSON_AND_ORGANIZATION_ROLE ( 'classification_officer' ) ;
#220 = FACE_OUTER_BOUND ( 'NONE', #22, .T. ) ;
#221 = CARTESIAN_POINT ( 'NONE',  ( 1.047444401652940007E-13, -3.673940397442059178E-15, 30.00000000000000000 ) ) ;
#222 =( GEOMETRIC_REPRESENTATION_CONTEXT ( 3 ) GLOBAL_UNCERTAINTY_ASSIGNED_CONTEXT ( ( #55 ) ) GLOBAL_UNIT_ASSIGNED_CONTEXT ( ( #133, #239, #77 ) ) REPRESENTATION_CONTEXT ( 'NONE', 'WORKASPACE' ) );
#223 = ADVANCED_FACE ( 'NONE', ( #169, #216 ), #82, .T. ) ;
#224 = EDGE_LOOP ( 'NONE', ( #174 ) ) ;
#225 = ADVANCED_FACE ( 'NONE', ( #74, #148 ), #9, .T. ) ;
#226 = DIRECTION ( 'NONE',  ( -3.491481338843133355E-15, 1.224646799147353207E-16, -1.000000000000000000 ) ) ;
#227 = COORDINATED_UNIVERSAL_TIME_OFFSET ( 1, 0, .AHEAD. ) ;
#228 = MANIFOLD_SOLID_BREP ( 'Corps-Déplacer/Copier1[1]', #135 ) ;
#229 = PLANE ( 'NONE',  #68 ) ;
#230 = AXIS2_PLACEMENT_3D ( 'NONE', #65, #104, #179 ) ;
#231 = ORIENTED_EDGE ( 'NONE', *, *, #136, .T. ) ;
#232 = AXIS2_PLACEMENT_3D ( 'NONE', #73, #49, #107 ) ;
#233 = PLANE ( 'NONE',  #72 ) ;
#234 = APPLICATION_CONTEXT ( 'configuration controlled 3d designs of mechanical parts and assemblies' ) ;
#235 = CARTESIAN_POINT ( 'NONE',  ( 2.025782818931961851E-14, 0.3499999999999994227, 5.802072594216368451 ) ) ;
#236 = CIRCLE ( 'NONE', #23, 0.3500000000000000888 ) ;
#237 = APPLICATION_CONTEXT ( 'configuration controlled 3d designs of mechanical parts and assemblies' ) ;
#238 = AXIS2_PLACEMENT_3D ( 'NONE', #221, #204, #33 ) ;
#239 =( NAMED_UNIT ( * ) PLANE_ANGLE_UNIT ( ) SI_UNIT ( $, .RADIAN. ) );
#240 = ADVANCED_FACE ( 'NONE', ( #110, #7 ), #170, .T. ) ;
#241 = ORIENTED_EDGE ( 'NONE', *, *, #64, .T. ) ;
#242 = ORIENTED_EDGE ( 'NONE', *, *, #150, .F. ) ;
#243 = DIRECTION ( 'NONE',  ( -3.491481338843133355E-15, 1.247135059052984700E-16, -1.000000000000000000 ) ) ;
ENDSEC;
END-ISO-10303-21;
