ISO-10303-21;
HEADER;
FILE_DESCRIPTION (( 'STEP AP203' ),
    '1' );
FILE_NAME ('955385.step',
    '2021-11-10T12:11:16',
    ( '' ),
    ( '' ),
    'SwSTEP 2.0',
    'SolidWorks 2019',
    '' );
FILE_SCHEMA (( 'CONFIG_CONTROL_DESIGN' ));
ENDSEC;

DATA;
#1 = APPROVAL_STATUS ( 'not_yet_approved' ) ;
#2 = EDGE_CURVE ( 'NONE', #11, #11, #127, .T. ) ;
#3 = DIRECTION ( 'NONE',  ( 0.0000000000000000000, 1.000000000000000000, 0.0000000000000000000 ) ) ;
#4 = MANIFOLD_SOLID_BREP ( 'Corps-Déplacer/Copier1[2]', #102 ) ;
#5 = APPROVAL_ROLE ( '' ) ;
#6 = CYLINDRICAL_SURFACE ( 'NONE', #13, 0.3250000000000000666 ) ;
#7 = LOCAL_TIME ( 13, 11, 16.00000000000000000, #19 ) ;
#8 = ORIENTED_EDGE ( 'NONE', *, *, #62, .T. ) ;
#9 = DIRECTION ( 'NONE',  ( 4.275831445896958607E-31, 1.000000000000000000, 1.224646799147353207E-16 ) ) ;
#10 = CARTESIAN_POINT ( 'NONE',  ( 1.043952920314096936E-13, -3.661693929450586610E-15, 29.90000000000000213 ) ) ;
#11 = VERTEX_POINT ( 'NONE', #230 ) ;
#12 =( NAMED_UNIT ( * ) PLANE_ANGLE_UNIT ( ) SI_UNIT ( $, .RADIAN. ) );
#13 = AXIS2_PLACEMENT_3D ( 'NONE', #100, #135, #172 ) ;
#14 = CARTESIAN_POINT ( 'NONE',  ( 1.811254419374244360E-14, 2.437109646825509718E-33, 5.187638837486627352 ) ) ;
#15 = APPROVAL_PERSON_ORGANIZATION ( #186, #119, #223 ) ;
#16 = COORDINATED_UNIVERSAL_TIME_OFFSET ( 1, 0, .AHEAD. ) ;
#17 = CALENDAR_DATE ( 2021, 10, 11 ) ;
#18 = EDGE_LOOP ( 'NONE', ( #129 ) ) ;
#19 = COORDINATED_UNIVERSAL_TIME_OFFSET ( 1, 0, .AHEAD. ) ;
#20 = CONICAL_SURFACE ( 'NONE', #38, 0.3999999999999989675, 0.7853981633974694843 ) ;
#21 = COORDINATED_UNIVERSAL_TIME_OFFSET ( 1, 0, .AHEAD. ) ;
#22 = FACE_OUTER_BOUND ( 'NONE', #155, .T. ) ;
#23 = FACE_OUTER_BOUND ( 'NONE', #148, .T. ) ;
#24 = AXIS2_PLACEMENT_3D ( 'NONE', #73, #75, #3 ) ;
#25 = EDGE_CURVE ( 'NONE', #181, #181, #26, .T. ) ;
#26 = CIRCLE ( 'NONE', #24, 0.3250000000000000666 ) ;
#27 = DIRECTION ( 'NONE',  ( 3.491481338843133355E-15, -1.224646799147353207E-16, 1.000000000000000000 ) ) ;
#28 = DIRECTION ( 'NONE',  ( -4.275831445896958607E-31, -1.000000000000000000, -1.224646799147353207E-16 ) ) ;
#29 = DIRECTION ( 'NONE',  ( -3.491481338843133355E-15, 1.224646799147353207E-16, -1.000000000000000000 ) ) ;
#30 = AXIS2_PLACEMENT_3D ( 'NONE', #59, #176, #76 ) ;
#31 = ORIENTED_EDGE ( 'NONE', *, *, #232, .F. ) ;
#32 = AXIS2_PLACEMENT_3D ( 'NONE', #214, #145, #159 ) ;
#33 = CC_DESIGN_APPROVAL ( #119, ( #201 ) ) ;
#34 = COORDINATED_UNIVERSAL_TIME_OFFSET ( 1, 0, .AHEAD. ) ;
#35 = ORIENTED_EDGE ( 'NONE', *, *, #62, .F. ) ;
#36 = DATE_TIME_ROLE ( 'classification_date' ) ;
#37 = PERSON_AND_ORGANIZATION ( #139, #221 ) ;
#38 = AXIS2_PLACEMENT_3D ( 'NONE', #42, #44, #98 ) ;
#39 = CALENDAR_DATE ( 2021, 10, 11 ) ;
#40 = DIRECTION ( 'NONE',  ( -3.491481338843133355E-15, 1.224646799147353207E-16, -1.000000000000000000 ) ) ;
#41 = DIRECTION ( 'NONE',  ( 4.275831445896958607E-31, 1.000000000000000000, 1.224646799147353207E-16 ) ) ;
#42 = CARTESIAN_POINT ( 'NONE',  ( 1.047444401652940007E-13, -3.673940397442059178E-15, 30.00000000000000000 ) ) ;
#43 = AXIS2_PLACEMENT_3D ( 'NONE', #200, #205, #171 ) ;
#44 = DIRECTION ( 'NONE',  ( -3.491481338843133355E-15, 1.224646799147353207E-16, -1.000000000000000000 ) ) ;
#45 = CARTESIAN_POINT ( 'NONE',  ( 1.963861303400523070E-14, -0.4999999999999987232, 5.624722325026741743 ) ) ;
#46 = AXIS2_PLACEMENT_3D ( 'NONE', #243, #56, #41 ) ;
#47 = UNCERTAINTY_MEASURE_WITH_UNIT (LENGTH_MEASURE( 1.000000000000000082E-05 ), #64, 'distance_accuracy_value', 'NONE');
#48 = EDGE_CURVE ( 'NONE', #66, #66, #144, .T. ) ;
#49 = CONICAL_SURFACE ( 'NONE', #190, 1732.050807568886512, 1.047197551196600074 ) ;
#50 = CARTESIAN_POINT ( 'NONE',  ( 1.811254419374244360E-14, 0.3249999999999994560, 5.187638837486627352 ) ) ;
#51 = DATE_AND_TIME ( #153, #78 ) ;
#52 = CIRCLE ( 'NONE', #184, 0.3919872981077789365 ) ;
#53 = APPROVAL_PERSON_ORGANIZATION ( #236, #67, #96 ) ;
#54 = CARTESIAN_POINT ( 'NONE',  ( 1.898541452845322063E-14, -6.781470032697685311E-16, 5.437638837486624688 ) ) ;
#55 = APPLICATION_PROTOCOL_DEFINITION ( 'international standard', 'config_control_design', 1994, #134 ) ;
#56 = DIRECTION ( 'NONE',  ( -3.491481338843133355E-15, 1.224646799147353207E-16, -1.000000000000000000 ) ) ;
#57 = LOCAL_TIME ( 13, 11, 16.00000000000000000, #16 ) ;
#58 = PERSON_AND_ORGANIZATION ( #139, #221 ) ;
#59 = CARTESIAN_POINT ( 'NONE',  ( 2.024335534126073157E-14, -7.230798537596888234E-16, 5.797927405783632082 ) ) ;
#60 = ORIENTED_EDGE ( 'NONE', *, *, #48, .F. ) ;
#61 = FACE_OUTER_BOUND ( 'NONE', #112, .T. ) ;
#62 = EDGE_CURVE ( 'NONE', #218, #218, #52, .T. ) ;
#63 = VERTEX_POINT ( 'NONE', #45 ) ;
#64 =( LENGTH_UNIT ( ) NAMED_UNIT ( * ) SI_UNIT ( .MILLI., .METRE. ) );
#65 = CIRCLE ( 'NONE', #68, 0.3999999999999989675 ) ;
#66 = VERTEX_POINT ( 'NONE', #125 ) ;
#67 = APPROVAL ( #1, 'UNSPECIFIED' ) ;
#68 = AXIS2_PLACEMENT_3D ( 'NONE', #80, #29, #231 ) ;
#69 = ORIENTED_EDGE ( 'NONE', *, *, #232, .T. ) ;
#70 = CARTESIAN_POINT ( 'NONE',  ( 3.491481338843133254E-12, -1.224646799147353249E-13, 1000.000000000000000 ) ) ;
#71 = EDGE_LOOP ( 'NONE', ( #69 ) ) ;
#72 = SHAPE_DEFINITION_REPRESENTATION ( #169, #233 ) ;
#73 = CARTESIAN_POINT ( 'NONE',  ( 1.811254419374244360E-14, -6.353025297460494310E-16, 5.187638837486627352 ) ) ;
#74 = PERSON_AND_ORGANIZATION_ROLE ( 'classification_officer' ) ;
#75 = DIRECTION ( 'NONE',  ( -3.491481338843133355E-15, 1.224646799147353207E-16, -1.000000000000000000 ) ) ;
#76 = DIRECTION ( 'NONE',  ( 0.0000000000000000000, -1.000000000000000000, 0.0000000000000000000 ) ) ;
#77 = AXIS2_PLACEMENT_3D ( 'NONE', #157, #195, #229 ) ;
#78 = LOCAL_TIME ( 13, 11, 16.00000000000000000, #21 ) ;
#79 = FACE_OUTER_BOUND ( 'NONE', #235, .T. ) ;
#80 = CARTESIAN_POINT ( 'NONE',  ( 1.047444401652940007E-13, -3.673940397442059178E-15, 30.00000000000000000 ) ) ;
#81 = MANIFOLD_SOLID_BREP ( 'Corps-Déplacer/Copier1[1]', #194 ) ;
#82 = VERTEX_POINT ( 'NONE', #160 ) ;
#83 =( NAMED_UNIT ( * ) SI_UNIT ( $, .STERADIAN. ) SOLID_ANGLE_UNIT ( ) );
#84 = PRODUCT_DEFINITION ( 'UNKNOWN', '', #107, #143 ) ;
#85 = DIRECTION ( 'NONE',  ( -3.491481338843133355E-15, 1.224646799147353207E-16, -1.000000000000000000 ) ) ;
#86 = AXIS2_PLACEMENT_3D ( 'NONE', #10, #85, #104 ) ;
#87 = PERSON_AND_ORGANIZATION_ROLE ( 'design_supplier' ) ;
#88 = ORIENTED_EDGE ( 'NONE', *, *, #48, .T. ) ;
#89 = APPROVAL_STATUS ( 'not_yet_approved' ) ;
#90 = ORIENTED_EDGE ( 'NONE', *, *, #2, .T. ) ;
#91 = ADVANCED_FACE ( 'NONE', ( #152, #225 ), #97, .T. ) ;
#92 = DATE_AND_TIME ( #17, #109 ) ;
#93 = AXIS2_PLACEMENT_3D ( 'NONE', #207, #95, #174 ) ;
#94 = FACE_OUTER_BOUND ( 'NONE', #18, .T. ) ;
#95 = DIRECTION ( 'NONE',  ( -3.491481338843133355E-15, 1.224646799147353207E-16, -1.000000000000000000 ) ) ;
#96 = APPROVAL_ROLE ( '' ) ;
#97 = CYLINDRICAL_SURFACE ( 'NONE', #164, 0.4999999999999980571 ) ;
#98 = DIRECTION ( 'NONE',  ( 0.0000000000000000000, 1.000000000000000000, 0.0000000000000000000 ) ) ;
#99 = PRODUCT_RELATED_PRODUCT_CATEGORY ( 'detail', '', ( #126 ) ) ;
#100 = CARTESIAN_POINT ( 'NONE',  ( 0.0000000000000000000, 0.0000000000000000000, 0.0000000000000000000 ) ) ;
#101 = CARTESIAN_POINT ( 'NONE',  ( 1.898541452845322063E-14, -0.3919872981077796026, 5.437638837486624688 ) ) ;
#102 = CLOSED_SHELL ( 'NONE', ( #177, #113, #189 ) ) ;
#103 = CC_DESIGN_APPROVAL ( #215, ( #84 ) ) ;
#104 = DIRECTION ( 'NONE',  ( 0.0000000000000000000, 1.000000000000000000, 0.0000000000000000000 ) ) ;
#105 = ADVANCED_FACE ( 'NONE', ( #213, #79 ), #117, .F. ) ;
#106 = FACE_OUTER_BOUND ( 'NONE', #111, .T. ) ;
#107 = PRODUCT_DEFINITION_FORMATION_WITH_SPECIFIED_SOURCE ( 'ANY', '', #126, .NOT_KNOWN. ) ;
#108 = CC_DESIGN_DATE_AND_TIME_ASSIGNMENT ( #92, #36, ( #201 ) ) ;
#109 = LOCAL_TIME ( 13, 11, 16.00000000000000000, #34 ) ;
#110 = APPROVAL_STATUS ( 'not_yet_approved' ) ;
#111 = EDGE_LOOP ( 'NONE', ( #60 ) ) ;
#112 = EDGE_LOOP ( 'NONE', ( #90 ) ) ;
#113 = ADVANCED_FACE ( 'NONE', ( #23, #133 ), #6, .T. ) ;
#114 = DATE_AND_TIME ( #39, #226 ) ;
#115 = FACE_BOUND ( 'NONE', #217, .T. ) ;
#116 = DIRECTION ( 'NONE',  ( 0.0000000000000000000, 1.000000000000000000, 0.0000000000000000000 ) ) ;
#117 = TOROIDAL_SURFACE ( 'NONE', #46, 0.8249999999999999556, 0.4999999999999997780 ) ;
#118 = CARTESIAN_POINT ( 'NONE',  ( 1.047444401652940007E-13, 2.999519565323652267E-33, 30.00000000000000000 ) ) ;
#119 = APPROVAL ( #89, 'UNSPECIFIED' ) ;
#120 = DIRECTION ( 'NONE',  ( -4.554490559825206315E-31, -1.000000000000000000, -1.281975124255702555E-16 ) ) ;
#121 = PLANE ( 'NONE',  #32 ) ;
#122 = ADVANCED_FACE ( 'NONE', ( #210, #115 ), #20, .T. ) ;
#123 = APPLICATION_CONTEXT ( 'configuration controlled 3d designs of mechanical parts and assemblies' ) ;
#124 = EDGE_LOOP ( 'NONE', ( #237 ) ) ;
#125 = CARTESIAN_POINT ( 'NONE',  ( 1.811254419374244360E-14, 0.3249999999999994560, 5.187638837486627352 ) ) ;
#126 = PRODUCT ( '955385', '955385', '', ( #219 ) ) ;
#127 = CIRCLE ( 'NONE', #93, 0.3250000000000000111 ) ;
#128 = CALENDAR_DATE ( 2021, 10, 11 ) ;
#129 = ORIENTED_EDGE ( 'NONE', *, *, #193, .F. ) ;
#130 = EDGE_LOOP ( 'NONE', ( #187 ) ) ;
#131 = DIRECTION ( 'NONE',  ( 3.491481338843133355E-15, -1.247135059052984700E-16, 1.000000000000000000 ) ) ;
#132 = PERSON_AND_ORGANIZATION ( #139, #221 ) ;
#133 = FACE_OUTER_BOUND ( 'NONE', #220, .T. ) ;
#134 = APPLICATION_CONTEXT ( 'configuration controlled 3d designs of mechanical parts and assemblies' ) ;
#135 = DIRECTION ( 'NONE',  ( -3.491481338843133355E-15, 1.224646799147353207E-16, -1.000000000000000000 ) ) ;
#136 = ADVANCED_FACE ( 'NONE', ( #192, #22 ), #141, .T. ) ;
#137 = DIRECTION ( 'NONE',  ( 4.275831445896958607E-31, 1.000000000000000000, 1.224646799147353207E-16 ) ) ;
#138 = FACE_OUTER_BOUND ( 'NONE', #124, .T. ) ;
#139 = PERSON ( 'UNSPECIFIED', 'UNSPECIFIED', 'UNSPECIFIED', ('UNSPECIFIED'), ('UNSPECIFIED'), ('UNSPECIFIED') ) ;
#140 = CARTESIAN_POINT ( 'NONE',  ( 1.043952920314096936E-13, 0.4999999999999954481, 29.90000000000000213 ) ) ;
#141 = CONICAL_SURFACE ( 'NONE', #30, 0.5999999999999982014, 0.5235987755982935976 ) ;
#142 = CC_DESIGN_PERSON_AND_ORGANIZATION_ASSIGNMENT ( #58, #87, ( #107 ) ) ;
#143 = DESIGN_CONTEXT ( 'detailed design', #134, 'design' ) ;
#144 = CIRCLE ( 'NONE', #161, 0.3250000000000000666 ) ;
#145 = DIRECTION ( 'NONE',  ( 3.491481338843133355E-15, -1.224646799147353207E-16, 1.000000000000000000 ) ) ;
#146 = ORIENTED_EDGE ( 'NONE', *, *, #193, .T. ) ;
#147 = ADVANCED_FACE ( 'NONE', ( #94 ), #211, .F. ) ;
#148 = EDGE_LOOP ( 'NONE', ( #88 ) ) ;
#149 = PERSON_AND_ORGANIZATION ( #139, #221 ) ;
#150 = APPROVAL_DATE_TIME ( #209, #215 ) ;
#151 = DIRECTION ( 'NONE',  ( 0.0000000000000000000, -1.000000000000000000, 0.0000000000000000000 ) ) ;
#152 = FACE_OUTER_BOUND ( 'NONE', #71, .T. ) ;
#153 = CALENDAR_DATE ( 2021, 10, 11 ) ;
#154 =( GEOMETRIC_REPRESENTATION_CONTEXT ( 3 ) GLOBAL_UNCERTAINTY_ASSIGNED_CONTEXT ( ( #47 ) ) GLOBAL_UNIT_ASSIGNED_CONTEXT ( ( #64, #12, #83 ) ) REPRESENTATION_CONTEXT ( 'NONE', 'WORKASPACE' ) );
#155 = EDGE_LOOP ( 'NONE', ( #224 ) ) ;
#156 = DIRECTION ( 'NONE',  ( -3.491481338843133355E-15, 1.224646799147353207E-16, -1.000000000000000000 ) ) ;
#157 = CARTESIAN_POINT ( 'NONE',  ( 1.963861303400523070E-14, -7.014788408978867315E-16, 5.624722325026741743 ) ) ;
#158 = AXIS2_PLACEMENT_3D ( 'NONE', #118, #156, #9 ) ;
#159 = DIRECTION ( 'NONE',  ( -4.275831445896958607E-31, -1.000000000000000000, -1.224646799147353207E-16 ) ) ;
#160 = CARTESIAN_POINT ( 'NONE',  ( 1.047444401652940007E-13, 0.3999999999999953038, 30.00000000000000000 ) ) ;
#161 = AXIS2_PLACEMENT_3D ( 'NONE', #212, #228, #116 ) ;
#162 = EDGE_CURVE ( 'NONE', #63, #63, #170, .T. ) ;
#163 = EDGE_LOOP ( 'NONE', ( #8 ) ) ;
#164 = AXIS2_PLACEMENT_3D ( 'NONE', #178, #40, #137 ) ;
#165 = APPROVAL_PERSON_ORGANIZATION ( #132, #215, #5 ) ;
#166 = VERTEX_POINT ( 'NONE', #140 ) ;
#167 = PERSON_AND_ORGANIZATION ( #139, #221 ) ;
#168 = DATE_TIME_ROLE ( 'creation_date' ) ;
#169 = PRODUCT_DEFINITION_SHAPE ( 'NONE', 'NONE',  #84 ) ;
#170 = CIRCLE ( 'NONE', #77, 0.4999999999999980571 ) ;
#171 = DIRECTION ( 'NONE',  ( 1.000000000000000000, 0.0000000000000000000, 0.0000000000000000000 ) ) ;
#172 = DIRECTION ( 'NONE',  ( 4.275831445896958607E-31, 1.000000000000000000, 1.224646799147353207E-16 ) ) ;
#173 = COORDINATED_UNIVERSAL_TIME_OFFSET ( 1, 0, .AHEAD. ) ;
#174 = DIRECTION ( 'NONE',  ( 2.962969145211131846E-31, 1.000000000000000000, 8.340016711426956521E-17 ) ) ;
#175 = PERSON_AND_ORGANIZATION ( #139, #221 ) ;
#176 = DIRECTION ( 'NONE',  ( 3.491481338843133355E-15, -1.247135059052984700E-16, 1.000000000000000000 ) ) ;
#177 = ADVANCED_FACE ( 'NONE', ( #61 ), #49, .T. ) ;
#178 = CARTESIAN_POINT ( 'NONE',  ( 0.0000000000000000000, 0.0000000000000000000, 0.0000000000000000000 ) ) ;
#179 = CC_DESIGN_PERSON_AND_ORGANIZATION_ASSIGNMENT ( #149, #222, ( #84 ) ) ;
#180 = AXIS2_PLACEMENT_3D ( 'NONE', #14, #199, #28 ) ;
#181 = VERTEX_POINT ( 'NONE', #50 ) ;
#182 = APPLICATION_PROTOCOL_DEFINITION ( 'international standard', 'config_control_design', 1994, #123 ) ;
#183 = ADVANCED_FACE ( 'NONE', ( #138 ), #198, .F. ) ;
#184 = AXIS2_PLACEMENT_3D ( 'NONE', #54, #131, #151 ) ;
#185 = ORIENTED_EDGE ( 'NONE', *, *, #2, .F. ) ;
#186 = PERSON_AND_ORGANIZATION ( #139, #221 ) ;
#187 = ORIENTED_EDGE ( 'NONE', *, *, #25, .F. ) ;
#188 = PERSON_AND_ORGANIZATION_ROLE ( 'creator' ) ;
#189 = ADVANCED_FACE ( 'NONE', ( #106 ), #121, .T. ) ;
#190 = AXIS2_PLACEMENT_3D ( 'NONE', #70, #27, #120 ) ;
#191 = ORIENTED_EDGE ( 'NONE', *, *, #162, .F. ) ;
#192 = FACE_BOUND ( 'NONE', #163, .T. ) ;
#193 = EDGE_CURVE ( 'NONE', #82, #82, #65, .T. ) ;
#194 = CLOSED_SHELL ( 'NONE', ( #91, #122, #147, #136, #183, #105 ) ) ;
#195 = DIRECTION ( 'NONE',  ( -3.491481338843133355E-15, 1.247135059052984700E-16, -1.000000000000000000 ) ) ;
#196 = EDGE_LOOP ( 'NONE', ( #191 ) ) ;
#197 = CC_DESIGN_PERSON_AND_ORGANIZATION_ASSIGNMENT ( #37, #227, ( #126 ) ) ;
#198 = PLANE ( 'NONE',  #180 ) ;
#199 = DIRECTION ( 'NONE',  ( 3.491481338843133355E-15, -1.224646799147353207E-16, 1.000000000000000000 ) ) ;
#200 = CARTESIAN_POINT ( 'NONE',  ( 0.0000000000000000000, 0.0000000000000000000, 0.0000000000000000000 ) ) ;
#201 = SECURITY_CLASSIFICATION ( '', '', #203 ) ;
#202 = CC_DESIGN_DATE_AND_TIME_ASSIGNMENT ( #114, #168, ( #84 ) ) ;
#203 = SECURITY_CLASSIFICATION_LEVEL ( 'unclassified' ) ;
#204 = APPROVAL_DATE_TIME ( #51, #67 ) ;
#205 = DIRECTION ( 'NONE',  ( 0.0000000000000000000, 0.0000000000000000000, 1.000000000000000000 ) ) ;
#206 = DATE_AND_TIME ( #239, #7 ) ;
#207 = CARTESIAN_POINT ( 'NONE',  ( 6.551374995267788976E-16, -2.297913017237285825E-17, 0.1876388374866273523 ) ) ;
#208 = CIRCLE ( 'NONE', #86, 0.4999999999999991673 ) ;
#209 = DATE_AND_TIME ( #128, #57 ) ;
#210 = FACE_OUTER_BOUND ( 'NONE', #240, .T. ) ;
#211 = PLANE ( 'NONE',  #158 ) ;
#212 = CARTESIAN_POINT ( 'NONE',  ( 1.811254419374244360E-14, -6.353025297460494310E-16, 5.187638837486627352 ) ) ;
#213 = FACE_OUTER_BOUND ( 'NONE', #130, .T. ) ;
#214 = CARTESIAN_POINT ( 'NONE',  ( 1.811254419374244360E-14, 2.437109646825509718E-33, 5.187638837486627352 ) ) ;
#215 = APPROVAL ( #110, 'UNSPECIFIED' ) ;
#216 = CC_DESIGN_SECURITY_CLASSIFICATION ( #201, ( #107 ) ) ;
#217 = EDGE_LOOP ( 'NONE', ( #146 ) ) ;
#218 = VERTEX_POINT ( 'NONE', #101 ) ;
#219 = MECHANICAL_CONTEXT ( 'NONE', #123, 'mechanical' ) ;
#220 = EDGE_LOOP ( 'NONE', ( #185 ) ) ;
#221 = ORGANIZATION ( 'UNSPECIFIED', 'UNSPECIFIED', '' ) ;
#222 = PERSON_AND_ORGANIZATION_ROLE ( 'creator' ) ;
#223 = APPROVAL_ROLE ( '' ) ;
#224 = ORIENTED_EDGE ( 'NONE', *, *, #162, .T. ) ;
#225 = FACE_OUTER_BOUND ( 'NONE', #196, .T. ) ;
#226 = LOCAL_TIME ( 13, 11, 16.00000000000000000, #173 ) ;
#227 = PERSON_AND_ORGANIZATION_ROLE ( 'design_owner' ) ;
#228 = DIRECTION ( 'NONE',  ( -3.491481338843133355E-15, 1.224646799147353207E-16, -1.000000000000000000 ) ) ;
#229 = DIRECTION ( 'NONE',  ( 0.0000000000000000000, -1.000000000000000000, 0.0000000000000000000 ) ) ;
#230 = CARTESIAN_POINT ( 'NONE',  ( 6.551374995267789962E-16, 0.3250000000000000111, 0.1876388374866273800 ) ) ;
#231 = DIRECTION ( 'NONE',  ( 0.0000000000000000000, 1.000000000000000000, 0.0000000000000000000 ) ) ;
#232 = EDGE_CURVE ( 'NONE', #166, #166, #208, .T. ) ;
#233 = ADVANCED_BREP_SHAPE_REPRESENTATION ( '955385', ( #81, #4, #43 ), #154 ) ;
#234 = CC_DESIGN_PERSON_AND_ORGANIZATION_ASSIGNMENT ( #167, #74, ( #201 ) ) ;
#235 = EDGE_LOOP ( 'NONE', ( #35 ) ) ;
#236 = PERSON_AND_ORGANIZATION ( #139, #221 ) ;
#237 = ORIENTED_EDGE ( 'NONE', *, *, #25, .T. ) ;
#238 = CC_DESIGN_PERSON_AND_ORGANIZATION_ASSIGNMENT ( #175, #188, ( #107 ) ) ;
#239 = CALENDAR_DATE ( 2021, 10, 11 ) ;
#240 = EDGE_LOOP ( 'NONE', ( #31 ) ) ;
#241 = CC_DESIGN_APPROVAL ( #67, ( #107 ) ) ;
#242 = APPROVAL_DATE_TIME ( #206, #119 ) ;
#243 = CARTESIAN_POINT ( 'NONE',  ( 1.811254419374244360E-14, -6.505213034913026604E-16, 5.187638837486627352 ) ) ;
ENDSEC;
END-ISO-10303-21;
