ISO-10303-21;
HEADER;
FILE_DESCRIPTION (( 'STEP AP203' ),
    '1' );
FILE_NAME ('955384.step',
    '2021-11-10T12:11:16',
    ( '' ),
    ( '' ),
    'SwSTEP 2.0',
    'SolidWorks 2019',
    '' );
FILE_SCHEMA (( 'CONFIG_CONTROL_DESIGN' ));
ENDSEC;

DATA;
#1 = FACE_OUTER_BOUND ( 'NONE', #39, .T. ) ;
#2 = ORIENTED_EDGE ( 'NONE', *, *, #96, .F. ) ;
#3 = ORIENTED_EDGE ( 'NONE', *, *, #114, .T. ) ;
#4 = DIRECTION ( 'NONE',  ( 4.275831445896958607E-31, 1.000000000000000000, 1.224646799147353207E-16 ) ) ;
#5 = EDGE_LOOP ( 'NONE', ( #99 ) ) ;
#6 = EDGE_LOOP ( 'NONE', ( #53 ) ) ;
#7 = CLOSED_SHELL ( 'NONE', ( #18, #51, #131, #238, #16, #200 ) ) ;
#8 =( GEOMETRIC_REPRESENTATION_CONTEXT ( 3 ) GLOBAL_UNCERTAINTY_ASSIGNED_CONTEXT ( ( #146 ) ) GLOBAL_UNIT_ASSIGNED_CONTEXT ( ( #85, #163, #183 ) ) REPRESENTATION_CONTEXT ( 'NONE', 'WORKASPACE' ) );
#9 = CARTESIAN_POINT ( 'NONE',  ( 6.047423072554883421E-16, 0.2999999999999999334, 0.1732050807568868422 ) ) ;
#10 = CARTESIAN_POINT ( 'NONE',  ( 0.0000000000000000000, 0.0000000000000000000, 0.0000000000000000000 ) ) ;
#11 = EDGE_CURVE ( 'NONE', #126, #126, #177, .T. ) ;
#12 = DIRECTION ( 'NONE',  ( -3.491481338843133355E-15, 1.224646799147353207E-16, -1.000000000000000000 ) ) ;
#13 = AXIS2_PLACEMENT_3D ( 'NONE', #175, #81, #139 ) ;
#14 = PERSON_AND_ORGANIZATION ( #35, #243 ) ;
#15 = PERSON_AND_ORGANIZATION_ROLE ( 'creator' ) ;
#16 = ADVANCED_FACE ( 'NONE', ( #136 ), #231, .F. ) ;
#17 = DIRECTION ( 'NONE',  ( -3.491481338843133355E-15, 1.224646799147353207E-16, -1.000000000000000000 ) ) ;
#18 = ADVANCED_FACE ( 'NONE', ( #56, #37 ), #38, .T. ) ;
#19 = ORIENTED_EDGE ( 'NONE', *, *, #214, .F. ) ;
#20 = CC_DESIGN_PERSON_AND_ORGANIZATION_ASSIGNMENT ( #102, #100, ( #58 ) ) ;
#21 = CARTESIAN_POINT ( 'NONE',  ( 1.718927866676036221E-14, -6.139901659119690725E-16, 4.923205080756884122 ) ) ;
#22 = AXIS2_PLACEMENT_3D ( 'NONE', #123, #23, #218 ) ;
#23 = DIRECTION ( 'NONE',  ( 3.491481338843133355E-15, -1.247135059052984700E-16, 1.000000000000000000 ) ) ;
#24 = VERTEX_POINT ( 'NONE', #101 ) ;
#25 = CC_DESIGN_APPROVAL ( #174, ( #138 ) ) ;
#26 = PERSON_AND_ORGANIZATION ( #35, #243 ) ;
#27 = DATE_AND_TIME ( #132, #203 ) ;
#28 = SECURITY_CLASSIFICATION_LEVEL ( 'unclassified' ) ;
#29 = PLANE ( 'NONE',  #54 ) ;
#30 = PRODUCT_DEFINITION ( 'UNKNOWN', '', #138, #122 ) ;
#31 = SHAPE_DEFINITION_REPRESENTATION ( #133, #237 ) ;
#32 = AXIS2_PLACEMENT_3D ( 'NONE', #45, #219, #124 ) ;
#33 = LOCAL_TIME ( 13, 11, 16.00000000000000000, #204 ) ;
#34 = ORIENTED_EDGE ( 'NONE', *, *, #241, .F. ) ;
#35 = PERSON ( 'UNSPECIFIED', 'UNSPECIFIED', 'UNSPECIFIED', ('UNSPECIFIED'), ('UNSPECIFIED'), ('UNSPECIFIED') ) ;
#36 = EDGE_LOOP ( 'NONE', ( #2 ) ) ;
#37 = FACE_OUTER_BOUND ( 'NONE', #230, .T. ) ;
#38 = CYLINDRICAL_SURFACE ( 'NONE', #46, 0.4999999999999980571 ) ;
#39 = EDGE_LOOP ( 'NONE', ( #137 ) ) ;
#40 = VERTEX_POINT ( 'NONE', #164 ) ;
#41 = CC_DESIGN_DATE_AND_TIME_ASSIGNMENT ( #67, #222, ( #30 ) ) ;
#42 = CARTESIAN_POINT ( 'NONE',  ( 1.047444401652940007E-13, -3.673940397442059178E-15, 30.00000000000000000 ) ) ;
#43 = APPROVAL_PERSON_ORGANIZATION ( #48, #169, #239 ) ;
#44 = CARTESIAN_POINT ( 'NONE',  ( 1.047444401652940007E-13, 0.3999999999999953038, 30.00000000000000000 ) ) ;
#45 = CARTESIAN_POINT ( 'NONE',  ( 1.043952920314096936E-13, -3.661693929450586610E-15, 29.90000000000000213 ) ) ;
#46 = AXIS2_PLACEMENT_3D ( 'NONE', #57, #140, #119 ) ;
#47 = AXIS2_PLACEMENT_3D ( 'NONE', #166, #128, #66 ) ;
#48 = PERSON_AND_ORGANIZATION ( #35, #243 ) ;
#49 = PERSON_AND_ORGANIZATION ( #35, #243 ) ;
#50 = APPROVAL_STATUS ( 'not_yet_approved' ) ;
#51 = ADVANCED_FACE ( 'NONE', ( #215, #145 ), #161, .T. ) ;
#52 = ADVANCED_FACE ( 'NONE', ( #61, #64 ), #125, .T. ) ;
#53 = ORIENTED_EDGE ( 'NONE', *, *, #60, .T. ) ;
#54 = AXIS2_PLACEMENT_3D ( 'NONE', #82, #232, #59 ) ;
#55 = ORIENTED_EDGE ( 'NONE', *, *, #214, .T. ) ;
#56 = FACE_OUTER_BOUND ( 'NONE', #197, .T. ) ;
#57 = CARTESIAN_POINT ( 'NONE',  ( 0.0000000000000000000, 0.0000000000000000000, 0.0000000000000000000 ) ) ;
#58 = PRODUCT ( '955384', '955384', '', ( #83 ) ) ;
#59 = DIRECTION ( 'NONE',  ( -4.275831445896958607E-31, -1.000000000000000000, -1.224646799147353207E-16 ) ) ;
#60 = EDGE_CURVE ( 'NONE', #62, #62, #226, .T. ) ;
#61 = FACE_OUTER_BOUND ( 'NONE', #158, .T. ) ;
#62 = VERTEX_POINT ( 'NONE', #44 ) ;
#63 = AXIS2_PLACEMENT_3D ( 'NONE', #189, #17, #225 ) ;
#64 = FACE_OUTER_BOUND ( 'NONE', #98, .T. ) ;
#65 = APPLICATION_PROTOCOL_DEFINITION ( 'international standard', 'config_control_design', 1994, #86 ) ;
#66 = DIRECTION ( 'NONE',  ( 1.000000000000000000, 0.0000000000000000000, 0.0000000000000000000 ) ) ;
#67 = DATE_AND_TIME ( #236, #69 ) ;
#68 = CIRCLE ( 'NONE', #208, 0.3669872981077792473 ) ;
#69 = LOCAL_TIME ( 13, 11, 16.00000000000000000, #90 ) ;
#70 = PERSON_AND_ORGANIZATION_ROLE ( 'design_supplier' ) ;
#71 = MANIFOLD_SOLID_BREP ( 'Corps-Déplacer/Copier1[1]', #7 ) ;
#72 = MANIFOLD_SOLID_BREP ( 'Corps-Déplacer/Copier1[2]', #157 ) ;
#73 = DIRECTION ( 'NONE',  ( -4.275831445896958607E-31, -1.000000000000000000, -1.224646799147353207E-16 ) ) ;
#74 = EDGE_LOOP ( 'NONE', ( #194 ) ) ;
#75 = AXIS2_PLACEMENT_3D ( 'NONE', #178, #79, #4 ) ;
#76 = FACE_BOUND ( 'NONE', #210, .T. ) ;
#77 = ORIENTED_EDGE ( 'NONE', *, *, #114, .F. ) ;
#78 = DIRECTION ( 'NONE',  ( -3.491481338843133355E-15, 1.224646799147353207E-16, -1.000000000000000000 ) ) ;
#79 = DIRECTION ( 'NONE',  ( -3.491481338843133355E-15, 1.224646799147353207E-16, -1.000000000000000000 ) ) ;
#80 = AXIS2_PLACEMENT_3D ( 'NONE', #10, #84, #121 ) ;
#81 = DIRECTION ( 'NONE',  ( 3.491481338843133355E-15, -1.224646799147353207E-16, 1.000000000000000000 ) ) ;
#82 = CARTESIAN_POINT ( 'NONE',  ( 1.631640833204958519E-14, 2.249639673992777517E-33, 4.673205080756885899 ) ) ;
#83 = MECHANICAL_CONTEXT ( 'NONE', #86, 'mechanical' ) ;
#84 = DIRECTION ( 'NONE',  ( -3.491481338843133355E-15, 1.224646799147353207E-16, -1.000000000000000000 ) ) ;
#85 =( LENGTH_UNIT ( ) NAMED_UNIT ( * ) SI_UNIT ( .MILLI., .METRE. ) );
#86 = APPLICATION_CONTEXT ( 'configuration controlled 3d designs of mechanical parts and assemblies' ) ;
#87 = TOROIDAL_SURFACE ( 'NONE', #75, 0.8000000000000000444, 0.5000000000000000000 ) ;
#88 = FACE_OUTER_BOUND ( 'NONE', #156, .T. ) ;
#89 = APPROVAL_STATUS ( 'not_yet_approved' ) ;
#90 = COORDINATED_UNIVERSAL_TIME_OFFSET ( 1, 0, .AHEAD. ) ;
#91 = APPROVAL_ROLE ( '' ) ;
#92 = PERSON_AND_ORGANIZATION ( #35, #243 ) ;
#93 = APPROVAL_STATUS ( 'not_yet_approved' ) ;
#94 = CC_DESIGN_PERSON_AND_ORGANIZATION_ASSIGNMENT ( #26, #15, ( #30 ) ) ;
#95 = APPLICATION_CONTEXT ( 'configuration controlled 3d designs of mechanical parts and assemblies' ) ;
#96 = EDGE_CURVE ( 'NONE', #40, #40, #150, .T. ) ;
#97 = APPROVAL_PERSON_ORGANIZATION ( #14, #159, #148 ) ;
#98 = EDGE_LOOP ( 'NONE', ( #213 ) ) ;
#99 = ORIENTED_EDGE ( 'NONE', *, *, #11, .T. ) ;
#100 = PERSON_AND_ORGANIZATION_ROLE ( 'design_owner' ) ;
#101 = CARTESIAN_POINT ( 'NONE',  ( 1.631640833204958519E-14, 0.2999999999999993783, 4.673205080756885899 ) ) ;
#102 = PERSON_AND_ORGANIZATION ( #35, #243 ) ;
#103 = LOCAL_TIME ( 13, 11, 16.00000000000000000, #206 ) ;
#104 = APPLICATION_PROTOCOL_DEFINITION ( 'international standard', 'config_control_design', 1994, #95 ) ;
#105 = PERSON_AND_ORGANIZATION ( #35, #243 ) ;
#106 = COORDINATED_UNIVERSAL_TIME_OFFSET ( 1, 0, .AHEAD. ) ;
#107 = AXIS2_PLACEMENT_3D ( 'NONE', #216, #199, #168 ) ;
#108 = DATE_AND_TIME ( #242, #103 ) ;
#109 = DIRECTION ( 'NONE',  ( 0.0000000000000000000, 1.000000000000000000, 0.0000000000000000000 ) ) ;
#110 = CALENDAR_DATE ( 2021, 10, 11 ) ;
#111 = AXIS2_PLACEMENT_3D ( 'NONE', #147, #162, #167 ) ;
#112 = DIRECTION ( 'NONE',  ( -3.491481338843133355E-15, 1.224646799147353207E-16, -1.000000000000000000 ) ) ;
#113 = EDGE_LOOP ( 'NONE', ( #77 ) ) ;
#114 = EDGE_CURVE ( 'NONE', #24, #24, #196, .T. ) ;
#115 = EDGE_LOOP ( 'NONE', ( #3 ) ) ;
#116 = CONICAL_SURFACE ( 'NONE', #13, 1732.050807568885830, 1.047197551196599852 ) ;
#117 = FACE_OUTER_BOUND ( 'NONE', #5, .T. ) ;
#118 = ORIENTED_EDGE ( 'NONE', *, *, #60, .F. ) ;
#119 = DIRECTION ( 'NONE',  ( 4.275831445896958607E-31, 1.000000000000000000, 1.224646799147353207E-16 ) ) ;
#120 = CARTESIAN_POINT ( 'NONE',  ( 1.799366274912624435E-14, -0.4999999999999987232, 5.153589838486221986 ) ) ;
#121 = DIRECTION ( 'NONE',  ( 4.275831445896958607E-31, 1.000000000000000000, 1.224646799147353207E-16 ) ) ;
#122 = DESIGN_CONTEXT ( 'detailed design', #95, 'design' ) ;
#123 = CARTESIAN_POINT ( 'NONE',  ( 1.859840505638174206E-14, -6.643232696173397644E-16, 5.326794919243112325 ) ) ;
#124 = DIRECTION ( 'NONE',  ( 0.0000000000000000000, 1.000000000000000000, 0.0000000000000000000 ) ) ;
#125 = CYLINDRICAL_SURFACE ( 'NONE', #80, 0.2999999999999999334 ) ;
#126 = VERTEX_POINT ( 'NONE', #9 ) ;
#127 = LOCAL_TIME ( 13, 11, 16.00000000000000000, #106 ) ;
#128 = DIRECTION ( 'NONE',  ( 0.0000000000000000000, 0.0000000000000000000, 1.000000000000000000 ) ) ;
#129 = CC_DESIGN_PERSON_AND_ORGANIZATION_ASSIGNMENT ( #105, #70, ( #138 ) ) ;
#130 = DATE_TIME_ROLE ( 'classification_date' ) ;
#131 = ADVANCED_FACE ( 'NONE', ( #88 ), #201, .F. ) ;
#132 = CALENDAR_DATE ( 2021, 10, 11 ) ;
#133 = PRODUCT_DEFINITION_SHAPE ( 'NONE', 'NONE',  #30 ) ;
#134 = FACE_OUTER_BOUND ( 'NONE', #227, .T. ) ;
#135 = DIRECTION ( 'NONE',  ( 3.209883240645393672E-31, 1.000000000000000000, 9.035018104045871927E-17 ) ) ;
#136 = FACE_OUTER_BOUND ( 'NONE', #115, .T. ) ;
#137 = ORIENTED_EDGE ( 'NONE', *, *, #241, .T. ) ;
#138 = PRODUCT_DEFINITION_FORMATION_WITH_SPECIFIED_SOURCE ( 'ANY', '', #58, .NOT_KNOWN. ) ;
#139 = DIRECTION ( 'NONE',  ( -4.554490559825208066E-31, -1.000000000000000000, -1.281975124255703048E-16 ) ) ;
#140 = DIRECTION ( 'NONE',  ( -3.491481338843133355E-15, 1.224646799147353207E-16, -1.000000000000000000 ) ) ;
#141 = DIRECTION ( 'NONE',  ( 3.491481338843133355E-15, -1.247135059052984700E-16, 1.000000000000000000 ) ) ;
#142 = CARTESIAN_POINT ( 'NONE',  ( 1.631640833204958519E-14, -5.723025643908068818E-16, 4.673205080756885899 ) ) ;
#143 = CALENDAR_DATE ( 2021, 10, 11 ) ;
#144 = CC_DESIGN_APPROVAL ( #169, ( #173 ) ) ;
#145 = FACE_BOUND ( 'NONE', #6, .T. ) ;
#146 = UNCERTAINTY_MEASURE_WITH_UNIT (LENGTH_MEASURE( 1.000000000000000082E-05 ), #85, 'distance_accuracy_value', 'NONE');
#147 = CARTESIAN_POINT ( 'NONE',  ( 1.047444401652940007E-13, -3.673940397442059178E-15, 30.00000000000000000 ) ) ;
#148 = APPROVAL_ROLE ( '' ) ;
#149 = PRODUCT_RELATED_PRODUCT_CATEGORY ( 'detail', '', ( #58 ) ) ;
#150 = CIRCLE ( 'NONE', #32, 0.4999999999999991673 ) ;
#151 = PERSON_AND_ORGANIZATION ( #35, #243 ) ;
#152 = DIRECTION ( 'NONE',  ( 0.0000000000000000000, 1.000000000000000000, 0.0000000000000000000 ) ) ;
#153 = AXIS2_PLACEMENT_3D ( 'NONE', #184, #12, #152 ) ;
#154 = CC_DESIGN_PERSON_AND_ORGANIZATION_ASSIGNMENT ( #151, #170, ( #173 ) ) ;
#155 = FACE_OUTER_BOUND ( 'NONE', #113, .T. ) ;
#156 = EDGE_LOOP ( 'NONE', ( #118 ) ) ;
#157 = CLOSED_SHELL ( 'NONE', ( #207, #52, #186 ) ) ;
#158 = EDGE_LOOP ( 'NONE', ( #195 ) ) ;
#159 = APPROVAL ( #89, 'UNSPECIFIED' ) ;
#160 = DIRECTION ( 'NONE',  ( 3.491481338843133355E-15, -1.224646799147353207E-16, 1.000000000000000000 ) ) ;
#161 = CONICAL_SURFACE ( 'NONE', #111, 0.3999999999999989675, 0.7853981633974694843 ) ;
#162 = DIRECTION ( 'NONE',  ( -3.491481338843133355E-15, 1.224646799147353207E-16, -1.000000000000000000 ) ) ;
#163 =( NAMED_UNIT ( * ) PLANE_ANGLE_UNIT ( ) SI_UNIT ( $, .RADIAN. ) );
#164 = CARTESIAN_POINT ( 'NONE',  ( 1.043952920314096936E-13, 0.4999999999999954481, 29.90000000000000213 ) ) ;
#165 = AXIS2_PLACEMENT_3D ( 'NONE', #42, #220, #109 ) ;
#166 = CARTESIAN_POINT ( 'NONE',  ( 0.0000000000000000000, 0.0000000000000000000, 0.0000000000000000000 ) ) ;
#167 = DIRECTION ( 'NONE',  ( 0.0000000000000000000, 1.000000000000000000, 0.0000000000000000000 ) ) ;
#168 = DIRECTION ( 'NONE',  ( 0.0000000000000000000, -1.000000000000000000, 0.0000000000000000000 ) ) ;
#169 = APPROVAL ( #50, 'UNSPECIFIED' ) ;
#170 = PERSON_AND_ORGANIZATION_ROLE ( 'classification_officer' ) ;
#171 = CIRCLE ( 'NONE', #180, 0.2999999999999999889 ) ;
#172 = APPROVAL_DATE_TIME ( #108, #169 ) ;
#173 = SECURITY_CLASSIFICATION ( '', '', #28 ) ;
#174 = APPROVAL ( #93, 'UNSPECIFIED' ) ;
#175 = CARTESIAN_POINT ( 'NONE',  ( 3.491481338843133254E-12, -1.224646799147353249E-13, 1000.000000000000000 ) ) ;
#176 = CARTESIAN_POINT ( 'NONE',  ( 6.047423072554882435E-16, -2.121150477449802490E-17, 0.1732050807568868145 ) ) ;
#177 = CIRCLE ( 'NONE', #188, 0.2999999999999999334 ) ;
#178 = CARTESIAN_POINT ( 'NONE',  ( 1.631640833204958519E-14, -5.421010862427522170E-16, 4.673205080756885899 ) ) ;
#179 = ORIENTED_EDGE ( 'NONE', *, *, #96, .T. ) ;
#180 = AXIS2_PLACEMENT_3D ( 'NONE', #142, #112, #228 ) ;
#181 = CC_DESIGN_APPROVAL ( #159, ( #30 ) ) ;
#182 = CARTESIAN_POINT ( 'NONE',  ( 1.718927866676036221E-14, -0.3669872981077798024, 4.923205080756884122 ) ) ;
#183 =( NAMED_UNIT ( * ) SI_UNIT ( $, .STERADIAN. ) SOLID_ANGLE_UNIT ( ) );
#184 = CARTESIAN_POINT ( 'NONE',  ( 1.631640833204958519E-14, -5.723025643908068818E-16, 4.673205080756885899 ) ) ;
#185 = VERTEX_POINT ( 'NONE', #182 ) ;
#186 = ADVANCED_FACE ( 'NONE', ( #205 ), #29, .T. ) ;
#187 = CARTESIAN_POINT ( 'NONE',  ( 1.631640833204958519E-14, 0.2999999999999993783, 4.673205080756885899 ) ) ;
#188 = AXIS2_PLACEMENT_3D ( 'NONE', #176, #78, #135 ) ;
#189 = CARTESIAN_POINT ( 'NONE',  ( 1.047444401652940007E-13, 2.999519565323652267E-33, 30.00000000000000000 ) ) ;
#190 = CC_DESIGN_DATE_AND_TIME_ASSIGNMENT ( #224, #130, ( #173 ) ) ;
#191 = PERSON_AND_ORGANIZATION_ROLE ( 'creator' ) ;
#192 = EDGE_CURVE ( 'NONE', #234, #234, #171, .T. ) ;
#193 = CC_DESIGN_SECURITY_CLASSIFICATION ( #173, ( #138 ) ) ;
#194 = ORIENTED_EDGE ( 'NONE', *, *, #192, .F. ) ;
#195 = ORIENTED_EDGE ( 'NONE', *, *, #192, .T. ) ;
#196 = CIRCLE ( 'NONE', #153, 0.2999999999999999889 ) ;
#197 = EDGE_LOOP ( 'NONE', ( #179 ) ) ;
#198 = DIRECTION ( 'NONE',  ( 0.0000000000000000000, -1.000000000000000000, 0.0000000000000000000 ) ) ;
#199 = DIRECTION ( 'NONE',  ( -3.491481338843133355E-15, 1.247135059052984700E-16, -1.000000000000000000 ) ) ;
#200 = ADVANCED_FACE ( 'NONE', ( #155, #134 ), #87, .F. ) ;
#201 = PLANE ( 'NONE',  #63 ) ;
#202 = AXIS2_PLACEMENT_3D ( 'NONE', #211, #160, #73 ) ;
#203 = LOCAL_TIME ( 13, 11, 16.00000000000000000, #223 ) ;
#204 = COORDINATED_UNIVERSAL_TIME_OFFSET ( 1, 0, .AHEAD. ) ;
#205 = FACE_OUTER_BOUND ( 'NONE', #74, .T. ) ;
#206 = COORDINATED_UNIVERSAL_TIME_OFFSET ( 1, 0, .AHEAD. ) ;
#207 = ADVANCED_FACE ( 'NONE', ( #117 ), #116, .T. ) ;
#208 = AXIS2_PLACEMENT_3D ( 'NONE', #21, #141, #198 ) ;
#209 = APPROVAL_PERSON_ORGANIZATION ( #49, #174, #91 ) ;
#210 = EDGE_LOOP ( 'NONE', ( #55 ) ) ;
#211 = CARTESIAN_POINT ( 'NONE',  ( 1.631640833204958519E-14, 2.249639673992777517E-33, 4.673205080756885899 ) ) ;
#212 = CIRCLE ( 'NONE', #107, 0.4999999999999980571 ) ;
#213 = ORIENTED_EDGE ( 'NONE', *, *, #11, .F. ) ;
#214 = EDGE_CURVE ( 'NONE', #185, #185, #68, .T. ) ;
#215 = FACE_OUTER_BOUND ( 'NONE', #36, .T. ) ;
#216 = CARTESIAN_POINT ( 'NONE',  ( 1.799366274912624435E-14, -6.427222567555376726E-16, 5.153589838486221986 ) ) ;
#217 = CONICAL_SURFACE ( 'NONE', #22, 0.5999999999999980904, 0.5235987755982937086 ) ;
#218 = DIRECTION ( 'NONE',  ( 0.0000000000000000000, -1.000000000000000000, 0.0000000000000000000 ) ) ;
#219 = DIRECTION ( 'NONE',  ( -3.491481338843133355E-15, 1.224646799147353207E-16, -1.000000000000000000 ) ) ;
#220 = DIRECTION ( 'NONE',  ( -3.491481338843133355E-15, 1.224646799147353207E-16, -1.000000000000000000 ) ) ;
#221 = APPROVAL_DATE_TIME ( #233, #159 ) ;
#222 = DATE_TIME_ROLE ( 'creation_date' ) ;
#223 = COORDINATED_UNIVERSAL_TIME_OFFSET ( 1, 0, .AHEAD. ) ;
#224 = DATE_AND_TIME ( #110, #127 ) ;
#225 = DIRECTION ( 'NONE',  ( 4.275831445896958607E-31, 1.000000000000000000, 1.224646799147353207E-16 ) ) ;
#226 = CIRCLE ( 'NONE', #165, 0.3999999999999989675 ) ;
#227 = EDGE_LOOP ( 'NONE', ( #19 ) ) ;
#228 = DIRECTION ( 'NONE',  ( 0.0000000000000000000, 1.000000000000000000, 0.0000000000000000000 ) ) ;
#229 = CC_DESIGN_PERSON_AND_ORGANIZATION_ASSIGNMENT ( #92, #191, ( #138 ) ) ;
#230 = EDGE_LOOP ( 'NONE', ( #34 ) ) ;
#231 = PLANE ( 'NONE',  #202 ) ;
#232 = DIRECTION ( 'NONE',  ( 3.491481338843133355E-15, -1.224646799147353207E-16, 1.000000000000000000 ) ) ;
#233 = DATE_AND_TIME ( #143, #33 ) ;
#234 = VERTEX_POINT ( 'NONE', #187 ) ;
#235 = VERTEX_POINT ( 'NONE', #120 ) ;
#236 = CALENDAR_DATE ( 2021, 10, 11 ) ;
#237 = ADVANCED_BREP_SHAPE_REPRESENTATION ( '955384', ( #71, #72, #47 ), #8 ) ;
#238 = ADVANCED_FACE ( 'NONE', ( #76, #1 ), #217, .T. ) ;
#239 = APPROVAL_ROLE ( '' ) ;
#240 = APPROVAL_DATE_TIME ( #27, #174 ) ;
#241 = EDGE_CURVE ( 'NONE', #235, #235, #212, .T. ) ;
#242 = CALENDAR_DATE ( 2021, 10, 11 ) ;
#243 = ORGANIZATION ( 'UNSPECIFIED', 'UNSPECIFIED', '' ) ;
ENDSEC;
END-ISO-10303-21;
