ISO-10303-21;
HEADER;
FILE_DESCRIPTION (( 'STEP AP203' ),
    '1' );
FILE_NAME ('955382.step',
    '2021-11-10T12:11:15',
    ( '' ),
    ( '' ),
    'SwSTEP 2.0',
    'SolidWorks 2019',
    '' );
FILE_SCHEMA (( 'CONFIG_CONTROL_DESIGN' ));
ENDSEC;

DATA;
#1 = DIRECTION ( 'NONE',  ( -3.491481338843133355E-15, 1.224646799147353207E-16, -1.000000000000000000 ) ) ;
#2 = EDGE_LOOP ( 'NONE', ( #8 ) ) ;
#3 = CC_DESIGN_PERSON_AND_ORGANIZATION_ASSIGNMENT ( #234, #44, ( #127 ) ) ;
#4 = COORDINATED_UNIVERSAL_TIME_OFFSET ( 1, 0, .AHEAD. ) ;
#5 = COORDINATED_UNIVERSAL_TIME_OFFSET ( 1, 0, .AHEAD. ) ;
#6 = ORIENTED_EDGE ( 'NONE', *, *, #220, .F. ) ;
#7 = DIRECTION ( 'NONE',  ( 0.0000000000000000000, 0.0000000000000000000, 1.000000000000000000 ) ) ;
#8 = ORIENTED_EDGE ( 'NONE', *, *, #27, .T. ) ;
#9 = EDGE_LOOP ( 'NONE', ( #137 ) ) ;
#10 = ORIENTED_EDGE ( 'NONE', *, *, #113, .F. ) ;
#11 = EDGE_CURVE ( 'NONE', #239, #239, #156, .T. ) ;
#12 = DIRECTION ( 'NONE',  ( -3.491481338843133355E-15, 1.247135059052984700E-16, -1.000000000000000000 ) ) ;
#13 = CARTESIAN_POINT ( 'NONE',  ( 1.446987727808544134E-14, -5.075349736376896534E-16, 4.144337567297405656 ) ) ;
#14 = CARTESIAN_POINT ( 'NONE',  ( 1.534274761279621521E-14, -0.3169872981077799245, 4.394337567297402991 ) ) ;
#15 = CARTESIAN_POINT ( 'NONE',  ( 3.491481338843133254E-12, -1.224646799147353249E-13, 1000.000000000000000 ) ) ;
#16 = CLOSED_SHELL ( 'NONE', ( #135, #224, #132 ) ) ;
#17 = CARTESIAN_POINT ( 'NONE',  ( 1.446987727808544134E-14, 0.2499999999999995837, 4.144337567297405656 ) ) ;
#18 = AXIS2_PLACEMENT_3D ( 'NONE', #221, #199, #225 ) ;
#19 = DATE_TIME_ROLE ( 'classification_date' ) ;
#20 = TOROIDAL_SURFACE ( 'NONE', #143, 0.7500000000000000000, 0.4999999999999997780 ) ;
#21 = PERSON_AND_ORGANIZATION ( #176, #67 ) ;
#22 = PERSON_AND_ORGANIZATION ( #176, #67 ) ;
#23 = ORIENTED_EDGE ( 'NONE', *, *, #154, .T. ) ;
#24 = PERSON_AND_ORGANIZATION ( #176, #67 ) ;
#25 = EDGE_LOOP ( 'NONE', ( #183 ) ) ;
#26 = DIRECTION ( 'NONE',  ( -3.491481338843133355E-15, 1.224646799147353207E-16, -1.000000000000000000 ) ) ;
#27 = EDGE_CURVE ( 'NONE', #149, #149, #58, .T. ) ;
#28 = FACE_OUTER_BOUND ( 'NONE', #25, .T. ) ;
#29 = DIRECTION ( 'NONE',  ( 0.0000000000000000000, -1.000000000000000000, 0.0000000000000000000 ) ) ;
#30 = EDGE_LOOP ( 'NONE', ( #103 ) ) ;
#31 = PLANE ( 'NONE',  #51 ) ;
#32 = CARTESIAN_POINT ( 'NONE',  ( 1.644950284878984462E-14, -0.4999999999999986122, 4.711324865405186912 ) ) ;
#33 = FACE_OUTER_BOUND ( 'NONE', #65, .T. ) ;
#34 = CYLINDRICAL_SURFACE ( 'NONE', #229, 0.2500000000000000000 ) ;
#35 = AXIS2_PLACEMENT_3D ( 'NONE', #240, #166, #228 ) ;
#36 = ORIENTED_EDGE ( 'NONE', *, *, #97, .F. ) ;
#37 = CARTESIAN_POINT ( 'NONE',  ( 1.047444401652940007E-13, -3.673940397442059178E-15, 30.00000000000000000 ) ) ;
#38 = APPLICATION_PROTOCOL_DEFINITION ( 'international standard', 'config_control_design', 1994, #241 ) ;
#39 = CARTESIAN_POINT ( 'NONE',  ( 0.0000000000000000000, 0.0000000000000000000, 0.0000000000000000000 ) ) ;
#40 = AXIS2_PLACEMENT_3D ( 'NONE', #181, #145, #223 ) ;
#41 = DATE_AND_TIME ( #45, #111 ) ;
#42 = EDGE_LOOP ( 'NONE', ( #36 ) ) ;
#43 = DESIGN_CONTEXT ( 'detailed design', #241, 'design' ) ;
#44 = PERSON_AND_ORGANIZATION_ROLE ( 'design_owner' ) ;
#45 = CALENDAR_DATE ( 2021, 10, 11 ) ;
#46 = EDGE_CURVE ( 'NONE', #187, #187, #168, .T. ) ;
#47 = CYLINDRICAL_SURFACE ( 'NONE', #71, 0.4999999999999980571 ) ;
#48 = ADVANCED_FACE ( 'NONE', ( #107, #201 ), #47, .T. ) ;
#49 = EDGE_LOOP ( 'NONE', ( #194 ) ) ;
#50 = AXIS2_PLACEMENT_3D ( 'NONE', #160, #12, #29 ) ;
#51 = AXIS2_PLACEMENT_3D ( 'NONE', #92, #131, #150 ) ;
#52 = CARTESIAN_POINT ( 'NONE',  ( 1.446987727808544134E-14, 1.874699728327315510E-33, 4.144337567297405656 ) ) ;
#53 = CARTESIAN_POINT ( 'NONE',  ( 1.446987727808544134E-14, 0.2499999999999995837, 4.144337567297405656 ) ) ;
#54 = AXIS2_PLACEMENT_3D ( 'NONE', #13, #75, #90 ) ;
#55 = PERSON_AND_ORGANIZATION_ROLE ( 'classification_officer' ) ;
#56 = DATE_AND_TIME ( #158, #210 ) ;
#57 = DATE_AND_TIME ( #153, #118 ) ;
#58 = CIRCLE ( 'NONE', #83, 0.2500000000000000000 ) ;
#59 = CALENDAR_DATE ( 2021, 10, 11 ) ;
#60 = APPROVAL_ROLE ( '' ) ;
#61 = LOCAL_TIME ( 13, 11, 15.00000000000000000, #133 ) ;
#62 = DIRECTION ( 'NONE',  ( 4.275831445896958607E-31, 1.000000000000000000, 1.224646799147353207E-16 ) ) ;
#63 = DIRECTION ( 'NONE',  ( -4.275831445896958607E-31, -1.000000000000000000, -1.224646799147353207E-16 ) ) ;
#64 = FACE_OUTER_BOUND ( 'NONE', #126, .T. ) ;
#65 = EDGE_LOOP ( 'NONE', ( #85 ) ) ;
#66 = CONICAL_SURFACE ( 'NONE', #78, 0.3999999999999989675, 0.7853981633974694843 ) ;
#67 = ORGANIZATION ( 'UNSPECIFIED', 'UNSPECIFIED', '' ) ;
#68 = ORIENTED_EDGE ( 'NONE', *, *, #11, .F. ) ;
#69 = CARTESIAN_POINT ( 'NONE',  ( 1.047444401652940007E-13, 0.3999999999999953038, 30.00000000000000000 ) ) ;
#70 = FACE_OUTER_BOUND ( 'NONE', #30, .T. ) ;
#71 = AXIS2_PLACEMENT_3D ( 'NONE', #86, #238, #159 ) ;
#72 = AXIS2_PLACEMENT_3D ( 'NONE', #39, #7, #216 ) ;
#73 = FACE_OUTER_BOUND ( 'NONE', #49, .T. ) ;
#74 = CC_DESIGN_DATE_AND_TIME_ASSIGNMENT ( #56, #81, ( #122 ) ) ;
#75 = DIRECTION ( 'NONE',  ( -3.491481338843133355E-15, 1.224646799147353207E-16, -1.000000000000000000 ) ) ;
#76 = APPROVAL ( #116, 'UNSPECIFIED' ) ;
#77 = CALENDAR_DATE ( 2021, 10, 11 ) ;
#78 = AXIS2_PLACEMENT_3D ( 'NONE', #37, #1, #226 ) ;
#79 = APPROVAL_PERSON_ORGANIZATION ( #21, #76, #82 ) ;
#80 = COORDINATED_UNIVERSAL_TIME_OFFSET ( 1, 0, .AHEAD. ) ;
#81 = DATE_TIME_ROLE ( 'creation_date' ) ;
#82 = APPROVAL_ROLE ( '' ) ;
#83 = AXIS2_PLACEMENT_3D ( 'NONE', #139, #197, #109 ) ;
#84 = ORIENTED_EDGE ( 'NONE', *, *, #46, .T. ) ;
#85 = ORIENTED_EDGE ( 'NONE', *, *, #46, .F. ) ;
#86 = CARTESIAN_POINT ( 'NONE',  ( 0.0000000000000000000, 0.0000000000000000000, 0.0000000000000000000 ) ) ;
#87 = ORIENTED_EDGE ( 'NONE', *, *, #113, .T. ) ;
#88 = DIRECTION ( 'NONE',  ( -3.491481338843133355E-15, 1.224646799147353207E-16, -1.000000000000000000 ) ) ;
#89 = CARTESIAN_POINT ( 'NONE',  ( 1.446987727808544134E-14, -5.421010862427522170E-16, 4.144337567297405656 ) ) ;
#90 = DIRECTION ( 'NONE',  ( 0.0000000000000000000, 1.000000000000000000, 0.0000000000000000000 ) ) ;
#91 = DIRECTION ( 'NONE',  ( 0.0000000000000000000, 1.000000000000000000, 0.0000000000000000000 ) ) ;
#92 = CARTESIAN_POINT ( 'NONE',  ( 1.047444401652940007E-13, 2.999519565323652267E-33, 30.00000000000000000 ) ) ;
#93 = ADVANCED_FACE ( 'NONE', ( #184, #28 ), #173, .T. ) ;
#94 = CLOSED_SHELL ( 'NONE', ( #48, #196, #174, #93, #180, #110 ) ) ;
#95 = CARTESIAN_POINT ( 'NONE',  ( 0.0000000000000000000, 0.0000000000000000000, 0.0000000000000000000 ) ) ;
#96 =( NAMED_UNIT ( * ) SI_UNIT ( $, .STERADIAN. ) SOLID_ANGLE_UNIT ( ) );
#97 = EDGE_CURVE ( 'NONE', #164, #164, #124, .T. ) ;
#98 = AXIS2_PLACEMENT_3D ( 'NONE', #185, #26, #108 ) ;
#99 = APPROVAL_ROLE ( '' ) ;
#100 = COORDINATED_UNIVERSAL_TIME_OFFSET ( 1, 0, .AHEAD. ) ;
#101 = DATE_AND_TIME ( #77, #61 ) ;
#102 = APPROVAL ( #177, 'UNSPECIFIED' ) ;
#103 = ORIENTED_EDGE ( 'NONE', *, *, #220, .T. ) ;
#104 = ADVANCED_BREP_SHAPE_REPRESENTATION ( '955382', ( #232, #148, #72 ), #172 ) ;
#105 = APPLICATION_CONTEXT ( 'configuration controlled 3d designs of mechanical parts and assemblies' ) ;
#106 = DIRECTION ( 'NONE',  ( 0.0000000000000000000, -1.000000000000000000, 0.0000000000000000000 ) ) ;
#107 = FACE_OUTER_BOUND ( 'NONE', #167, .T. ) ;
#108 = DIRECTION ( 'NONE',  ( 0.0000000000000000000, 1.000000000000000000, 0.0000000000000000000 ) ) ;
#109 = DIRECTION ( 'NONE',  ( 3.851859888774471706E-31, 1.000000000000000000, 1.084202172485504434E-16 ) ) ;
#110 = ADVANCED_FACE ( 'NONE', ( #125, #182 ), #20, .F. ) ;
#111 = LOCAL_TIME ( 13, 11, 15.00000000000000000, #5 ) ;
#112 = FACE_BOUND ( 'NONE', #134, .T. ) ;
#113 = EDGE_CURVE ( 'NONE', #115, #115, #178, .T. ) ;
#114 = CARTESIAN_POINT ( 'NONE',  ( 1.446987727808544134E-14, -5.075349736376896534E-16, 4.144337567297405656 ) ) ;
#115 = VERTEX_POINT ( 'NONE', #69 ) ;
#116 = APPROVAL_STATUS ( 'not_yet_approved' ) ;
#117 = SHAPE_DEFINITION_REPRESENTATION ( #188, #104 ) ;
#118 = LOCAL_TIME ( 13, 11, 15.00000000000000000, #80 ) ;
#119 = EDGE_LOOP ( 'NONE', ( #68 ) ) ;
#120 = DATE_AND_TIME ( #59, #130 ) ;
#121 = PERSON_AND_ORGANIZATION ( #176, #67 ) ;
#122 = PRODUCT_DEFINITION ( 'UNKNOWN', '', #227, #43 ) ;
#123 = FACE_OUTER_BOUND ( 'NONE', #2, .T. ) ;
#124 = CIRCLE ( 'NONE', #40, 0.3169872981077793694 ) ;
#125 = FACE_OUTER_BOUND ( 'NONE', #9, .T. ) ;
#126 = EDGE_LOOP ( 'NONE', ( #6 ) ) ;
#127 = PRODUCT ( '955382', '955382', '', ( #138 ) ) ;
#128 = CARTESIAN_POINT ( 'NONE',  ( 5.039519227129068367E-16, 0.2500000000000000000, 0.1443375672974056834 ) ) ;
#129 = FACE_OUTER_BOUND ( 'NONE', #179, .T. ) ;
#130 = LOCAL_TIME ( 13, 11, 15.00000000000000000, #100 ) ;
#131 = DIRECTION ( 'NONE',  ( -3.491481338843133355E-15, 1.224646799147353207E-16, -1.000000000000000000 ) ) ;
#132 = ADVANCED_FACE ( 'NONE', ( #64 ), #161, .T. ) ;
#133 = COORDINATED_UNIVERSAL_TIME_OFFSET ( 1, 0, .AHEAD. ) ;
#134 = EDGE_LOOP ( 'NONE', ( #87 ) ) ;
#135 = ADVANCED_FACE ( 'NONE', ( #123 ), #213, .T. ) ;
#136 = CIRCLE ( 'NONE', #54, 0.2500000000000000555 ) ;
#137 = ORIENTED_EDGE ( 'NONE', *, *, #154, .F. ) ;
#138 = MECHANICAL_CONTEXT ( 'NONE', #105, 'mechanical' ) ;
#139 = CARTESIAN_POINT ( 'NONE',  ( 5.039519227129067381E-16, -1.767625397874835511E-17, 0.1443375672974056556 ) ) ;
#140 = DIRECTION ( 'NONE',  ( 3.491481338843133355E-15, -1.247135059052984700E-16, 1.000000000000000000 ) ) ;
#141 = CC_DESIGN_DATE_AND_TIME_ASSIGNMENT ( #101, #19, ( #219 ) ) ;
#142 = ORIENTED_EDGE ( 'NONE', *, *, #97, .T. ) ;
#143 = AXIS2_PLACEMENT_3D ( 'NONE', #89, #88, #62 ) ;
#144 = CC_DESIGN_SECURITY_CLASSIFICATION ( #219, ( #227 ) ) ;
#145 = DIRECTION ( 'NONE',  ( 3.491481338843133355E-15, -1.247135059052984700E-16, 1.000000000000000000 ) ) ;
#146 =( LENGTH_UNIT ( ) NAMED_UNIT ( * ) SI_UNIT ( .MILLI., .METRE. ) );
#147 = CARTESIAN_POINT ( 'NONE',  ( 1.043952920314096936E-13, 0.4999999999999954481, 29.90000000000000213 ) ) ;
#148 = MANIFOLD_SOLID_BREP ( 'Corps-Déplacer/Copier1[2]', #16 ) ;
#149 = VERTEX_POINT ( 'NONE', #128 ) ;
#150 = DIRECTION ( 'NONE',  ( 4.275831445896958607E-31, 1.000000000000000000, 1.224646799147353207E-16 ) ) ;
#151 = DIRECTION ( 'NONE',  ( 4.275831445896958607E-31, 1.000000000000000000, 1.224646799147353207E-16 ) ) ;
#152 = PERSON_AND_ORGANIZATION ( #176, #67 ) ;
#153 = CALENDAR_DATE ( 2021, 10, 11 ) ;
#154 = EDGE_CURVE ( 'NONE', #189, #189, #136, .T. ) ;
#155 = PERSON_AND_ORGANIZATION ( #176, #67 ) ;
#156 = CIRCLE ( 'NONE', #50, 0.4999999999999980571 ) ;
#157 = AXIS2_PLACEMENT_3D ( 'NONE', #52, #237, #63 ) ;
#158 = CALENDAR_DATE ( 2021, 10, 11 ) ;
#159 = DIRECTION ( 'NONE',  ( 4.275831445896958607E-31, 1.000000000000000000, 1.224646799147353207E-16 ) ) ;
#160 = CARTESIAN_POINT ( 'NONE',  ( 1.644950284878984462E-14, -5.875658414234894060E-16, 4.711324865405186912 ) ) ;
#161 = PLANE ( 'NONE',  #157 ) ;
#162 = APPROVAL ( #217, 'UNSPECIFIED' ) ;
#163 = EDGE_LOOP ( 'NONE', ( #23 ) ) ;
#164 = VERTEX_POINT ( 'NONE', #14 ) ;
#165 = DIRECTION ( 'NONE',  ( 3.491481338843133355E-15, -1.224646799147353207E-16, 1.000000000000000000 ) ) ;
#166 = DIRECTION ( 'NONE',  ( 3.491481338843133355E-15, -1.224646799147353207E-16, 1.000000000000000000 ) ) ;
#167 = EDGE_LOOP ( 'NONE', ( #84 ) ) ;
#168 = CIRCLE ( 'NONE', #98, 0.4999999999999991673 ) ;
#169 = DIRECTION ( 'NONE',  ( -3.491481338843133355E-15, 1.224646799147353207E-16, -1.000000000000000000 ) ) ;
#170 = CC_DESIGN_PERSON_AND_ORGANIZATION_ASSIGNMENT ( #155, #235, ( #227 ) ) ;
#171 = PERSON_AND_ORGANIZATION_ROLE ( 'creator' ) ;
#172 =( GEOMETRIC_REPRESENTATION_CONTEXT ( 3 ) GLOBAL_UNCERTAINTY_ASSIGNED_CONTEXT ( ( #198 ) ) GLOBAL_UNIT_ASSIGNED_CONTEXT ( ( #146, #191, #96 ) ) REPRESENTATION_CONTEXT ( 'NONE', 'WORKASPACE' ) );
#173 = CONICAL_SURFACE ( 'NONE', #222, 0.5999999999999982014, 0.5235987755982928205 ) ;
#174 = ADVANCED_FACE ( 'NONE', ( #129 ), #31, .F. ) ;
#175 = APPROVAL_DATE_TIME ( #41, #162 ) ;
#176 = PERSON ( 'UNSPECIFIED', 'UNSPECIFIED', 'UNSPECIFIED', ('UNSPECIFIED'), ('UNSPECIFIED'), ('UNSPECIFIED') ) ;
#177 = APPROVAL_STATUS ( 'not_yet_approved' ) ;
#178 = CIRCLE ( 'NONE', #18, 0.3999999999999989675 ) ;
#179 = EDGE_LOOP ( 'NONE', ( #10 ) ) ;
#180 = ADVANCED_FACE ( 'NONE', ( #204 ), #211, .F. ) ;
#181 = CARTESIAN_POINT ( 'NONE',  ( 1.534274761279621521E-14, -5.480332441490197107E-16, 4.394337567297402991 ) ) ;
#182 = FACE_OUTER_BOUND ( 'NONE', #42, .T. ) ;
#183 = ORIENTED_EDGE ( 'NONE', *, *, #11, .T. ) ;
#184 = FACE_BOUND ( 'NONE', #192, .T. ) ;
#185 = CARTESIAN_POINT ( 'NONE',  ( 1.043952920314096936E-13, -3.661693929450586610E-15, 29.90000000000000213 ) ) ;
#186 = APPROVAL_PERSON_ORGANIZATION ( #22, #162, #60 ) ;
#187 = VERTEX_POINT ( 'NONE', #147 ) ;
#188 = PRODUCT_DEFINITION_SHAPE ( 'NONE', 'NONE',  #122 ) ;
#189 = VERTEX_POINT ( 'NONE', #17 ) ;
#190 = CC_DESIGN_PERSON_AND_ORGANIZATION_ASSIGNMENT ( #152, #55, ( #219 ) ) ;
#191 =( NAMED_UNIT ( * ) PLANE_ANGLE_UNIT ( ) SI_UNIT ( $, .RADIAN. ) );
#192 = EDGE_LOOP ( 'NONE', ( #142 ) ) ;
#193 = PERSON_AND_ORGANIZATION ( #176, #67 ) ;
#194 = ORIENTED_EDGE ( 'NONE', *, *, #27, .F. ) ;
#195 = PERSON_AND_ORGANIZATION_ROLE ( 'design_supplier' ) ;
#196 = ADVANCED_FACE ( 'NONE', ( #33, #112 ), #66, .T. ) ;
#197 = DIRECTION ( 'NONE',  ( -3.491481338843133355E-15, 1.224646799147353207E-16, -1.000000000000000000 ) ) ;
#198 = UNCERTAINTY_MEASURE_WITH_UNIT (LENGTH_MEASURE( 1.000000000000000082E-05 ), #146, 'distance_accuracy_value', 'NONE');
#199 = DIRECTION ( 'NONE',  ( -3.491481338843133355E-15, 1.224646799147353207E-16, -1.000000000000000000 ) ) ;
#200 = CC_DESIGN_APPROVAL ( #162, ( #122 ) ) ;
#201 = FACE_OUTER_BOUND ( 'NONE', #119, .T. ) ;
#202 = CARTESIAN_POINT ( 'NONE',  ( 1.705424515604534864E-14, -6.091668542852914979E-16, 4.884529946162078140 ) ) ;
#203 = CC_DESIGN_PERSON_AND_ORGANIZATION_ASSIGNMENT ( #193, #195, ( #227 ) ) ;
#204 = FACE_OUTER_BOUND ( 'NONE', #163, .T. ) ;
#205 = APPLICATION_PROTOCOL_DEFINITION ( 'international standard', 'config_control_design', 1994, #105 ) ;
#206 = CC_DESIGN_PERSON_AND_ORGANIZATION_ASSIGNMENT ( #121, #171, ( #122 ) ) ;
#207 = DIRECTION ( 'NONE',  ( -4.554490559825206315E-31, -1.000000000000000000, -1.281975124255702555E-16 ) ) ;
#208 = DIRECTION ( 'NONE',  ( -3.491481338843133355E-15, 1.224646799147353207E-16, -1.000000000000000000 ) ) ;
#209 = AXIS2_PLACEMENT_3D ( 'NONE', #114, #208, #91 ) ;
#210 = LOCAL_TIME ( 13, 11, 15.00000000000000000, #4 ) ;
#211 = PLANE ( 'NONE',  #35 ) ;
#212 = APPROVAL_DATE_TIME ( #120, #76 ) ;
#213 = CONICAL_SURFACE ( 'NONE', #242, 1732.050807568886512, 1.047197551196600074 ) ;
#214 = APPROVAL_PERSON_ORGANIZATION ( #24, #102, #99 ) ;
#215 = PRODUCT_RELATED_PRODUCT_CATEGORY ( 'detail', '', ( #127 ) ) ;
#216 = DIRECTION ( 'NONE',  ( 1.000000000000000000, 0.0000000000000000000, 0.0000000000000000000 ) ) ;
#217 = APPROVAL_STATUS ( 'not_yet_approved' ) ;
#218 = CIRCLE ( 'NONE', #209, 0.2500000000000000555 ) ;
#219 = SECURITY_CLASSIFICATION ( '', '', #233 ) ;
#220 = EDGE_CURVE ( 'NONE', #243, #243, #218, .T. ) ;
#221 = CARTESIAN_POINT ( 'NONE',  ( 1.047444401652940007E-13, -3.673940397442059178E-15, 30.00000000000000000 ) ) ;
#222 = AXIS2_PLACEMENT_3D ( 'NONE', #202, #140, #106 ) ;
#223 = DIRECTION ( 'NONE',  ( 0.0000000000000000000, -1.000000000000000000, 0.0000000000000000000 ) ) ;
#224 = ADVANCED_FACE ( 'NONE', ( #70, #73 ), #34, .T. ) ;
#225 = DIRECTION ( 'NONE',  ( 0.0000000000000000000, 1.000000000000000000, 0.0000000000000000000 ) ) ;
#226 = DIRECTION ( 'NONE',  ( 0.0000000000000000000, 1.000000000000000000, 0.0000000000000000000 ) ) ;
#227 = PRODUCT_DEFINITION_FORMATION_WITH_SPECIFIED_SOURCE ( 'ANY', '', #127, .NOT_KNOWN. ) ;
#228 = DIRECTION ( 'NONE',  ( -4.275831445896958607E-31, -1.000000000000000000, -1.224646799147353207E-16 ) ) ;
#229 = AXIS2_PLACEMENT_3D ( 'NONE', #95, #169, #151 ) ;
#230 = CC_DESIGN_APPROVAL ( #76, ( #227 ) ) ;
#231 = APPROVAL_DATE_TIME ( #57, #102 ) ;
#232 = MANIFOLD_SOLID_BREP ( 'Corps-Déplacer/Copier1[1]', #94 ) ;
#233 = SECURITY_CLASSIFICATION_LEVEL ( 'unclassified' ) ;
#234 = PERSON_AND_ORGANIZATION ( #176, #67 ) ;
#235 = PERSON_AND_ORGANIZATION_ROLE ( 'creator' ) ;
#236 = CC_DESIGN_APPROVAL ( #102, ( #219 ) ) ;
#237 = DIRECTION ( 'NONE',  ( 3.491481338843133355E-15, -1.224646799147353207E-16, 1.000000000000000000 ) ) ;
#238 = DIRECTION ( 'NONE',  ( -3.491481338843133355E-15, 1.224646799147353207E-16, -1.000000000000000000 ) ) ;
#239 = VERTEX_POINT ( 'NONE', #32 ) ;
#240 = CARTESIAN_POINT ( 'NONE',  ( 1.446987727808544134E-14, 1.874699728327315510E-33, 4.144337567297405656 ) ) ;
#241 = APPLICATION_CONTEXT ( 'configuration controlled 3d designs of mechanical parts and assemblies' ) ;
#242 = AXIS2_PLACEMENT_3D ( 'NONE', #15, #165, #207 ) ;
#243 = VERTEX_POINT ( 'NONE', #53 ) ;
ENDSEC;
END-ISO-10303-21;
