ISO-10303-21;
HEADER;
FILE_DESCRIPTION (( 'STEP AP203' ),
    '1' );
FILE_NAME ('955381.step',
    '2021-11-10T12:11:14',
    ( '' ),
    ( '' ),
    'SwSTEP 2.0',
    'SolidWorks 2019',
    '' );
FILE_SCHEMA (( 'CONFIG_CONTROL_DESIGN' ));
ENDSEC;

DATA;
#1 = DIRECTION ( 'NONE',  ( 0.0000000000000000000, 1.000000000000000000, 0.0000000000000000000 ) ) ;
#2 = CIRCLE ( 'NONE', #84, 0.2249999999999999778 ) ;
#3 = FACE_OUTER_BOUND ( 'NONE', #107, .T. ) ;
#4 = APPROVAL ( #54, 'UNSPECIFIED' ) ;
#5 = CARTESIAN_POINT ( 'NONE',  ( 1.047444401652940007E-13, -3.673940397442059178E-15, 30.00000000000000000 ) ) ;
#6 = CARTESIAN_POINT ( 'NONE',  ( 3.491481338843133254E-12, -1.224646799147353249E-13, 1000.000000000000000 ) ) ;
#7 = CYLINDRICAL_SURFACE ( 'NONE', #100, 0.4999999999999980571 ) ;
#8 = FACE_OUTER_BOUND ( 'NONE', #147, .T. ) ;
#9 = DIRECTION ( 'NONE',  ( 0.0000000000000000000, 0.0000000000000000000, 1.000000000000000000 ) ) ;
#10 = TOROIDAL_SURFACE ( 'NONE', #95, 0.7249999999999999778, 0.5000000000000000000 ) ;
#11 = EDGE_CURVE ( 'NONE', #16, #16, #209, .T. ) ;
#12 = VERTEX_POINT ( 'NONE', #198 ) ;
#13 = EDGE_LOOP ( 'NONE', ( #106 ) ) ;
#14 = CARTESIAN_POINT ( 'NONE',  ( 1.302288955027689626E-14, 0.2249999999999995060, 3.729903810567664735 ) ) ;
#15 = AXIS2_PLACEMENT_3D ( 'NONE', #56, #185, #37 ) ;
#16 = VERTEX_POINT ( 'NONE', #176 ) ;
#17 = LOCAL_TIME ( 13, 11, 14.00000000000000000, #108 ) ;
#18 = CC_DESIGN_SECURITY_CLASSIFICATION ( #72, ( #127 ) ) ;
#19 = DIRECTION ( 'NONE',  ( 4.275831445896958607E-31, 1.000000000000000000, 1.224646799147353207E-16 ) ) ;
#20 = ADVANCED_FACE ( 'NONE', ( #130, #186 ), #229, .T. ) ;
#21 = DIRECTION ( 'NONE',  ( -4.554490559825206315E-31, -1.000000000000000000, -1.281975124255702555E-16 ) ) ;
#22 = DIRECTION ( 'NONE',  ( -3.491481338843133355E-15, 1.224646799147353207E-16, -1.000000000000000000 ) ) ;
#23 = DIRECTION ( 'NONE',  ( 0.0000000000000000000, 1.000000000000000000, 0.0000000000000000000 ) ) ;
#24 = APPROVAL_PERSON_ORGANIZATION ( #80, #42, #124 ) ;
#25 = EDGE_LOOP ( 'NONE', ( #128 ) ) ;
#26 = FACE_OUTER_BOUND ( 'NONE', #204, .T. ) ;
#27 = ORIENTED_EDGE ( 'NONE', *, *, #150, .F. ) ;
#28 = APPROVAL_STATUS ( 'not_yet_approved' ) ;
#29 = ORIENTED_EDGE ( 'NONE', *, *, #57, .T. ) ;
#30 = CARTESIAN_POINT ( 'NONE',  ( 4.535567304416161826E-16, 0.2249999999999999778, 0.1299038105676651456 ) ) ;
#31 = APPROVAL_DATE_TIME ( #195, #42 ) ;
#32 = EDGE_LOOP ( 'NONE', ( #226 ) ) ;
#33 = PERSON_AND_ORGANIZATION ( #103, #36 ) ;
#34 = CC_DESIGN_PERSON_AND_ORGANIZATION_ASSIGNMENT ( #68, #179, ( #127 ) ) ;
#35 = AXIS2_PLACEMENT_3D ( 'NONE', #77, #187, #174 ) ;
#36 = ORGANIZATION ( 'UNSPECIFIED', 'UNSPECIFIED', '' ) ;
#37 = DIRECTION ( 'NONE',  ( 4.275831445896958607E-31, 1.000000000000000000, 1.224646799147352961E-16 ) ) ;
#38 = ADVANCED_FACE ( 'NONE', ( #59, #211 ), #93, .T. ) ;
#39 = CARTESIAN_POINT ( 'NONE',  ( 1.515370069779518107E-14, -5.412806078716704160E-16, 4.340192378864669465 ) ) ;
#40 = CIRCLE ( 'NONE', #138, 0.4999999999999980571 ) ;
#41 = DIRECTION ( 'NONE',  ( -4.275831445896958607E-31, -1.000000000000000000, -1.224646799147353207E-16 ) ) ;
#42 = APPROVAL ( #144, 'UNSPECIFIED' ) ;
#43 = PLANE ( 'NONE',  #220 ) ;
#44 = EDGE_LOOP ( 'NONE', ( #164 ) ) ;
#45 = DIRECTION ( 'NONE',  ( -3.491481338843133355E-15, 1.224646799147353207E-16, -1.000000000000000000 ) ) ;
#46 = DIRECTION ( 'NONE',  ( -3.491481338843133355E-15, 1.224646799147353207E-16, -1.000000000000000000 ) ) ;
#47 = CALENDAR_DATE ( 2021, 10, 11 ) ;
#48 = PERSON_AND_ORGANIZATION_ROLE ( 'classification_officer' ) ;
#49 = CARTESIAN_POINT ( 'NONE',  ( 1.043952920314096936E-13, 0.4999999999999954481, 29.90000000000000213 ) ) ;
#50 = CC_DESIGN_PERSON_AND_ORGANIZATION_ASSIGNMENT ( #239, #70, ( #177 ) ) ;
#51 = EDGE_LOOP ( 'NONE', ( #121 ) ) ;
#52 = CIRCLE ( 'NONE', #178, 0.4999999999999991673 ) ;
#53 = EDGE_LOOP ( 'NONE', ( #29 ) ) ;
#54 = APPROVAL_STATUS ( 'not_yet_approved' ) ;
#55 = CARTESIAN_POINT ( 'NONE',  ( 1.515370069779518107E-14, -0.4999999999999986122, 4.340192378864669465 ) ) ;
#56 = CARTESIAN_POINT ( 'NONE',  ( 0.0000000000000000000, 0.0000000000000000000, 0.0000000000000000000 ) ) ;
#57 = EDGE_CURVE ( 'NONE', #129, #129, #2, .T. ) ;
#58 = CIRCLE ( 'NONE', #112, 0.2249999999999999778 ) ;
#59 = FACE_OUTER_BOUND ( 'NONE', #53, .T. ) ;
#60 = PLANE ( 'NONE',  #67 ) ;
#61 = CONICAL_SURFACE ( 'NONE', #152, 1732.050807568886512, 1.047197551196600074 ) ;
#62 = DESIGN_CONTEXT ( 'detailed design', #210, 'design' ) ;
#63 = EDGE_LOOP ( 'NONE', ( #235 ) ) ;
#64 = PLANE ( 'NONE',  #75 ) ;
#65 = ORIENTED_EDGE ( 'NONE', *, *, #11, .F. ) ;
#66 = APPLICATION_PROTOCOL_DEFINITION ( 'international standard', 'config_control_design', 1994, #210 ) ;
#67 = AXIS2_PLACEMENT_3D ( 'NONE', #157, #236, #41 ) ;
#68 = PERSON_AND_ORGANIZATION ( #103, #36 ) ;
#69 = PRODUCT_RELATED_PRODUCT_CATEGORY ( 'detail', '', ( #169 ) ) ;
#70 = PERSON_AND_ORGANIZATION_ROLE ( 'creator' ) ;
#71 = COORDINATED_UNIVERSAL_TIME_OFFSET ( 1, 0, .AHEAD. ) ;
#72 = SECURITY_CLASSIFICATION ( '', '', #122 ) ;
#73 = CARTESIAN_POINT ( 'NONE',  ( 1.302288955027689626E-14, 0.2249999999999995060, 3.729903810567664735 ) ) ;
#74 = AXIS2_PLACEMENT_3D ( 'NONE', #237, #88, #241 ) ;
#75 = AXIS2_PLACEMENT_3D ( 'NONE', #219, #45, #175 ) ;
#76 = FACE_OUTER_BOUND ( 'NONE', #51, .T. ) ;
#77 = CARTESIAN_POINT ( 'NONE',  ( 1.389575988498766698E-14, -4.963477573817499265E-16, 3.979903810567661626 ) ) ;
#78 = DIRECTION ( 'NONE',  ( 0.0000000000000000000, -1.000000000000000000, 0.0000000000000000000 ) ) ;
#79 = DIRECTION ( 'NONE',  ( 3.491481338843133355E-15, -1.224646799147353207E-16, 1.000000000000000000 ) ) ;
#80 = PERSON_AND_ORGANIZATION ( #103, #36 ) ;
#81 = ORIENTED_EDGE ( 'NONE', *, *, #116, .T. ) ;
#82 = FACE_OUTER_BOUND ( 'NONE', #13, .T. ) ;
#83 = PERSON_AND_ORGANIZATION ( #103, #36 ) ;
#84 = AXIS2_PLACEMENT_3D ( 'NONE', #139, #154, #136 ) ;
#85 = APPROVAL_DATE_TIME ( #104, #207 ) ;
#86 = EDGE_LOOP ( 'NONE', ( #81 ) ) ;
#87 = ORIENTED_EDGE ( 'NONE', *, *, #242, .T. ) ;
#88 = DIRECTION ( 'NONE',  ( -3.491481338843133355E-15, 1.224646799147353207E-16, -1.000000000000000000 ) ) ;
#89 = ORIENTED_EDGE ( 'NONE', *, *, #116, .F. ) ;
#90 = CALENDAR_DATE ( 2021, 10, 11 ) ;
#91 = COORDINATED_UNIVERSAL_TIME_OFFSET ( 1, 0, .AHEAD. ) ;
#92 = AXIS2_PLACEMENT_3D ( 'NONE', #221, #46, #1 ) ;
#93 = CYLINDRICAL_SURFACE ( 'NONE', #15, 0.2250000000000000056 ) ;
#94 = CC_DESIGN_APPROVAL ( #4, ( #177 ) ) ;
#95 = AXIS2_PLACEMENT_3D ( 'NONE', #232, #119, #19 ) ;
#96 = FACE_BOUND ( 'NONE', #25, .T. ) ;
#97 = DIRECTION ( 'NONE',  ( 4.275831445896958607E-31, 1.000000000000000000, 1.224646799147353207E-16 ) ) ;
#98 = EDGE_CURVE ( 'NONE', #149, #149, #58, .T. ) ;
#99 = FACE_OUTER_BOUND ( 'NONE', #238, .T. ) ;
#100 = AXIS2_PLACEMENT_3D ( 'NONE', #214, #142, #97 ) ;
#101 = EDGE_LOOP ( 'NONE', ( #87 ) ) ;
#102 = DIRECTION ( 'NONE',  ( -3.491481338843133355E-15, 1.247135059052984700E-16, -1.000000000000000000 ) ) ;
#103 = PERSON ( 'UNSPECIFIED', 'UNSPECIFIED', 'UNSPECIFIED', ('UNSPECIFIED'), ('UNSPECIFIED'), ('UNSPECIFIED') ) ;
#104 = DATE_AND_TIME ( #47, #17 ) ;
#105 = AXIS2_PLACEMENT_3D ( 'NONE', #113, #231, #208 ) ;
#106 = ORIENTED_EDGE ( 'NONE', *, *, #98, .F. ) ;
#107 = EDGE_LOOP ( 'NONE', ( #194 ) ) ;
#108 = COORDINATED_UNIVERSAL_TIME_OFFSET ( 1, 0, .AHEAD. ) ;
#109 = ADVANCED_FACE ( 'NONE', ( #141, #215 ), #7, .T. ) ;
#110 = DIRECTION ( 'NONE',  ( 1.000000000000000000, 0.0000000000000000000, 0.0000000000000000000 ) ) ;
#111 = DATE_AND_TIME ( #90, #199 ) ;
#112 = AXIS2_PLACEMENT_3D ( 'NONE', #117, #22, #233 ) ;
#113 = CARTESIAN_POINT ( 'NONE',  ( 1.575844300505068193E-14, -5.628816207334726064E-16, 4.513397459621559804 ) ) ;
#114 = ADVANCED_FACE ( 'NONE', ( #191 ), #61, .T. ) ;
#115 = LOCAL_TIME ( 13, 11, 14.00000000000000000, #71 ) ;
#116 = EDGE_CURVE ( 'NONE', #12, #12, #189, .T. ) ;
#117 = CARTESIAN_POINT ( 'NONE',  ( 1.302288955027689626E-14, -4.567814762739206585E-16, 3.729903810567664735 ) ) ;
#118 = CC_DESIGN_PERSON_AND_ORGANIZATION_ASSIGNMENT ( #83, #224, ( #127 ) ) ;
#119 = DIRECTION ( 'NONE',  ( -3.491481338843133355E-15, 1.224646799147353207E-16, -1.000000000000000000 ) ) ;
#120 = CARTESIAN_POINT ( 'NONE',  ( 1.043952920314096936E-13, -3.661693929450586610E-15, 29.90000000000000213 ) ) ;
#121 = ORIENTED_EDGE ( 'NONE', *, *, #98, .T. ) ;
#122 = SECURITY_CLASSIFICATION_LEVEL ( 'unclassified' ) ;
#123 = CALENDAR_DATE ( 2021, 10, 11 ) ;
#124 = APPROVAL_ROLE ( '' ) ;
#125 = ORIENTED_EDGE ( 'NONE', *, *, #212, .F. ) ;
#126 = VERTEX_POINT ( 'NONE', #30 ) ;
#127 = PRODUCT_DEFINITION_FORMATION_WITH_SPECIFIED_SOURCE ( 'ANY', '', #169, .NOT_KNOWN. ) ;
#128 = ORIENTED_EDGE ( 'NONE', *, *, #11, .T. ) ;
#129 = VERTEX_POINT ( 'NONE', #14 ) ;
#130 = FACE_BOUND ( 'NONE', #86, .T. ) ;
#131 = CC_DESIGN_PERSON_AND_ORGANIZATION_ASSIGNMENT ( #146, #48, ( #72 ) ) ;
#132 = MECHANICAL_CONTEXT ( 'NONE', #203, 'mechanical' ) ;
#133 = ADVANCED_FACE ( 'NONE', ( #82, #99 ), #10, .F. ) ;
#134 = AXIS2_PLACEMENT_3D ( 'NONE', #196, #9, #110 ) ;
#135 = APPROVAL_PERSON_ORGANIZATION ( #33, #207, #223 ) ;
#136 = DIRECTION ( 'NONE',  ( 0.0000000000000000000, 1.000000000000000000, 0.0000000000000000000 ) ) ;
#137 = CC_DESIGN_DATE_AND_TIME_ASSIGNMENT ( #148, #202, ( #177 ) ) ;
#138 = AXIS2_PLACEMENT_3D ( 'NONE', #39, #102, #78 ) ;
#139 = CARTESIAN_POINT ( 'NONE',  ( 1.302288955027689626E-14, -4.567814762739206585E-16, 3.729903810567664735 ) ) ;
#140 = CC_DESIGN_DATE_AND_TIME_ASSIGNMENT ( #162, #197, ( #72 ) ) ;
#141 = FACE_OUTER_BOUND ( 'NONE', #44, .T. ) ;
#142 = DIRECTION ( 'NONE',  ( -3.491481338843133355E-15, 1.224646799147353207E-16, -1.000000000000000000 ) ) ;
#143 = ADVANCED_FACE ( 'NONE', ( #26, #96 ), #170, .T. ) ;
#144 = APPROVAL_STATUS ( 'not_yet_approved' ) ;
#145 = CALENDAR_DATE ( 2021, 10, 11 ) ;
#146 = PERSON_AND_ORGANIZATION ( #103, #36 ) ;
#147 = EDGE_LOOP ( 'NONE', ( #65 ) ) ;
#148 = DATE_AND_TIME ( #145, #234 ) ;
#149 = VERTEX_POINT ( 'NONE', #73 ) ;
#150 = EDGE_CURVE ( 'NONE', #228, #228, #40, .T. ) ;
#151 = AXIS2_PLACEMENT_3D ( 'NONE', #5, #173, #172 ) ;
#152 = AXIS2_PLACEMENT_3D ( 'NONE', #6, #190, #21 ) ;
#153 = ADVANCED_FACE ( 'NONE', ( #3 ), #43, .T. ) ;
#154 = DIRECTION ( 'NONE',  ( -3.491481338843133355E-15, 1.224646799147353207E-16, -1.000000000000000000 ) ) ;
#155 = CARTESIAN_POINT ( 'NONE',  ( 1.302288955027689626E-14, 1.687229755494582624E-33, 3.729903810567664735 ) ) ;
#156 = CC_DESIGN_APPROVAL ( #207, ( #127 ) ) ;
#157 = CARTESIAN_POINT ( 'NONE',  ( 1.302288955027689626E-14, 1.687229755494582624E-33, 3.729903810567664735 ) ) ;
#158 = MANIFOLD_SOLID_BREP ( 'Corps-Déplacer/Copier1[1]', #216 ) ;
#159 = DIRECTION ( 'NONE',  ( -4.275831445896958607E-31, -1.000000000000000000, -1.224646799147353207E-16 ) ) ;
#160 = COORDINATED_UNIVERSAL_TIME_OFFSET ( 1, 0, .AHEAD. ) ;
#161 = MANIFOLD_SOLID_BREP ( 'Corps-Déplacer/Copier1[2]', #213 ) ;
#162 = DATE_AND_TIME ( #123, #115 ) ;
#163 = PERSON_AND_ORGANIZATION ( #103, #36 ) ;
#164 = ORIENTED_EDGE ( 'NONE', *, *, #212, .T. ) ;
#165 = PERSON_AND_ORGANIZATION_ROLE ( 'design_owner' ) ;
#166 = VERTEX_POINT ( 'NONE', #49 ) ;
#167 = LOCAL_TIME ( 13, 11, 14.00000000000000000, #160 ) ;
#168 = APPROVAL_PERSON_ORGANIZATION ( #182, #4, #183 ) ;
#169 = PRODUCT ( '955381', '955381', '', ( #132 ) ) ;
#170 = CONICAL_SURFACE ( 'NONE', #151, 0.3999999999999989675, 0.7853981633974694843 ) ;
#171 = ADVANCED_FACE ( 'NONE', ( #76 ), #60, .F. ) ;
#172 = DIRECTION ( 'NONE',  ( 0.0000000000000000000, 1.000000000000000000, 0.0000000000000000000 ) ) ;
#173 = DIRECTION ( 'NONE',  ( -3.491481338843133355E-15, 1.224646799147353207E-16, -1.000000000000000000 ) ) ;
#174 = DIRECTION ( 'NONE',  ( 0.0000000000000000000, -1.000000000000000000, 0.0000000000000000000 ) ) ;
#175 = DIRECTION ( 'NONE',  ( 4.275831445896958607E-31, 1.000000000000000000, 1.224646799147353207E-16 ) ) ;
#176 = CARTESIAN_POINT ( 'NONE',  ( 1.047444401652940007E-13, 0.3999999999999953038, 30.00000000000000000 ) ) ;
#177 = PRODUCT_DEFINITION ( 'UNKNOWN', '', #127, #62 ) ;
#178 = AXIS2_PLACEMENT_3D ( 'NONE', #120, #192, #23 ) ;
#179 = PERSON_AND_ORGANIZATION_ROLE ( 'design_supplier' ) ;
#180 =( LENGTH_UNIT ( ) NAMED_UNIT ( * ) SI_UNIT ( .MILLI., .METRE. ) );
#181 = SHAPE_DEFINITION_REPRESENTATION ( #188, #218 ) ;
#182 = PERSON_AND_ORGANIZATION ( #103, #36 ) ;
#183 = APPROVAL_ROLE ( '' ) ;
#184 = APPROVAL_DATE_TIME ( #111, #4 ) ;
#185 = DIRECTION ( 'NONE',  ( -3.491481338843133355E-15, 1.224646799147353207E-16, -1.000000000000000000 ) ) ;
#186 = FACE_OUTER_BOUND ( 'NONE', #32, .T. ) ;
#187 = DIRECTION ( 'NONE',  ( 3.491481338843133355E-15, -1.247135059052984700E-16, 1.000000000000000000 ) ) ;
#188 = PRODUCT_DEFINITION_SHAPE ( 'NONE', 'NONE',  #177 ) ;
#189 = CIRCLE ( 'NONE', #35, 0.2919872981077790142 ) ;
#190 = DIRECTION ( 'NONE',  ( 3.491481338843133355E-15, -1.224646799147353207E-16, 1.000000000000000000 ) ) ;
#191 = FACE_OUTER_BOUND ( 'NONE', #101, .T. ) ;
#192 = DIRECTION ( 'NONE',  ( -3.491481338843133355E-15, 1.224646799147353207E-16, -1.000000000000000000 ) ) ;
#193 = CC_DESIGN_APPROVAL ( #42, ( #72 ) ) ;
#194 = ORIENTED_EDGE ( 'NONE', *, *, #57, .F. ) ;
#195 = DATE_AND_TIME ( #200, #167 ) ;
#196 = CARTESIAN_POINT ( 'NONE',  ( 0.0000000000000000000, 0.0000000000000000000, 0.0000000000000000000 ) ) ;
#197 = DATE_TIME_ROLE ( 'classification_date' ) ;
#198 = CARTESIAN_POINT ( 'NONE',  ( 1.389575988498766698E-14, -0.2919872981077795138, 3.979903810567661626 ) ) ;
#199 = LOCAL_TIME ( 13, 11, 14.00000000000000000, #240 ) ;
#200 = CALENDAR_DATE ( 2021, 10, 11 ) ;
#201 = UNCERTAINTY_MEASURE_WITH_UNIT (LENGTH_MEASURE( 1.000000000000000082E-05 ), #180, 'distance_accuracy_value', 'NONE');
#202 = DATE_TIME_ROLE ( 'creation_date' ) ;
#203 = APPLICATION_CONTEXT ( 'configuration controlled 3d designs of mechanical parts and assemblies' ) ;
#204 = EDGE_LOOP ( 'NONE', ( #125 ) ) ;
#205 = APPLICATION_PROTOCOL_DEFINITION ( 'international standard', 'config_control_design', 1994, #203 ) ;
#206 = CIRCLE ( 'NONE', #74, 0.2250000000000000056 ) ;
#207 = APPROVAL ( #28, 'UNSPECIFIED' ) ;
#208 = DIRECTION ( 'NONE',  ( 0.0000000000000000000, -1.000000000000000000, 0.0000000000000000000 ) ) ;
#209 = CIRCLE ( 'NONE', #92, 0.3999999999999989675 ) ;
#210 = APPLICATION_CONTEXT ( 'configuration controlled 3d designs of mechanical parts and assemblies' ) ;
#211 = FACE_OUTER_BOUND ( 'NONE', #63, .T. ) ;
#212 = EDGE_CURVE ( 'NONE', #166, #166, #52, .T. ) ;
#213 = CLOSED_SHELL ( 'NONE', ( #114, #38, #153 ) ) ;
#214 = CARTESIAN_POINT ( 'NONE',  ( 0.0000000000000000000, 0.0000000000000000000, 0.0000000000000000000 ) ) ;
#215 = FACE_OUTER_BOUND ( 'NONE', #217, .T. ) ;
#216 = CLOSED_SHELL ( 'NONE', ( #109, #143, #222, #20, #171, #133 ) ) ;
#217 = EDGE_LOOP ( 'NONE', ( #27 ) ) ;
#218 = ADVANCED_BREP_SHAPE_REPRESENTATION ( '955381', ( #158, #161, #134 ), #243 ) ;
#219 = CARTESIAN_POINT ( 'NONE',  ( 1.047444401652940007E-13, 2.999519565323652267E-33, 30.00000000000000000 ) ) ;
#220 = AXIS2_PLACEMENT_3D ( 'NONE', #155, #79, #159 ) ;
#221 = CARTESIAN_POINT ( 'NONE',  ( 1.047444401652940007E-13, -3.673940397442059178E-15, 30.00000000000000000 ) ) ;
#222 = ADVANCED_FACE ( 'NONE', ( #8 ), #64, .F. ) ;
#223 = APPROVAL_ROLE ( '' ) ;
#224 = PERSON_AND_ORGANIZATION_ROLE ( 'creator' ) ;
#225 =( NAMED_UNIT ( * ) PLANE_ANGLE_UNIT ( ) SI_UNIT ( $, .RADIAN. ) );
#226 = ORIENTED_EDGE ( 'NONE', *, *, #150, .T. ) ;
#227 =( NAMED_UNIT ( * ) SI_UNIT ( $, .STERADIAN. ) SOLID_ANGLE_UNIT ( ) );
#228 = VERTEX_POINT ( 'NONE', #55 ) ;
#229 = CONICAL_SURFACE ( 'NONE', #105, 0.5999999999999980904, 0.5235987755982918213 ) ;
#230 = CC_DESIGN_PERSON_AND_ORGANIZATION_ASSIGNMENT ( #163, #165, ( #169 ) ) ;
#231 = DIRECTION ( 'NONE',  ( 3.491481338843133355E-15, -1.247135059052984700E-16, 1.000000000000000000 ) ) ;
#232 = CARTESIAN_POINT ( 'NONE',  ( 1.302288955027689626E-14, -4.336808689942017736E-16, 3.729903810567664735 ) ) ;
#233 = DIRECTION ( 'NONE',  ( 0.0000000000000000000, 1.000000000000000000, 0.0000000000000000000 ) ) ;
#234 = LOCAL_TIME ( 13, 11, 14.00000000000000000, #91 ) ;
#235 = ORIENTED_EDGE ( 'NONE', *, *, #242, .F. ) ;
#236 = DIRECTION ( 'NONE',  ( 3.491481338843133355E-15, -1.224646799147353207E-16, 1.000000000000000000 ) ) ;
#237 = CARTESIAN_POINT ( 'NONE',  ( 4.535567304416160840E-16, -1.590862858087351867E-17, 0.1299038105676651178 ) ) ;
#238 = EDGE_LOOP ( 'NONE', ( #89 ) ) ;
#239 = PERSON_AND_ORGANIZATION ( #103, #36 ) ;
#240 = COORDINATED_UNIVERSAL_TIME_OFFSET ( 1, 0, .AHEAD. ) ;
#241 = DIRECTION ( 'NONE',  ( 4.279844320860524021E-31, 1.000000000000000000, 1.204669080539449344E-16 ) ) ;
#242 = EDGE_CURVE ( 'NONE', #126, #126, #206, .T. ) ;
#243 =( GEOMETRIC_REPRESENTATION_CONTEXT ( 3 ) GLOBAL_UNCERTAINTY_ASSIGNED_CONTEXT ( ( #201 ) ) GLOBAL_UNIT_ASSIGNED_CONTEXT ( ( #180, #225, #227 ) ) REPRESENTATION_CONTEXT ( 'NONE', 'WORKASPACE' ) );
ENDSEC;
END-ISO-10303-21;
