ISO-10303-21;
HEADER;
FILE_DESCRIPTION (( 'STEP AP203' ),
    '1' );
FILE_NAME ('955380.step',
    '2021-11-10T12:11:14',
    ( '' ),
    ( '' ),
    'SwSTEP 2.0',
    'SolidWorks 2019',
    '' );
FILE_SCHEMA (( 'CONFIG_CONTROL_DESIGN' ));
ENDSEC;

DATA;
#1 = EDGE_LOOP ( 'NONE', ( #124 ) ) ;
#2 = AXIS2_PLACEMENT_3D ( 'NONE', #221, #167, #242 ) ;
#3 = ADVANCED_FACE ( 'NONE', ( #143, #106 ), #50, .T. ) ;
#4 = PERSON_AND_ORGANIZATION ( #237, #177 ) ;
#5 = AXIS2_PLACEMENT_3D ( 'NONE', #178, #166, #154 ) ;
#6 = APPLICATION_PROTOCOL_DEFINITION ( 'international standard', 'config_control_design', 1994, #142 ) ;
#7 = PERSON_AND_ORGANIZATION ( #237, #177 ) ;
#8 = CONICAL_SURFACE ( 'NONE', #193, 0.5999999999999978684, 0.5235987755982932645 ) ;
#9 = EDGE_LOOP ( 'NONE', ( #64 ) ) ;
#10 = LOCAL_TIME ( 13, 11, 14.00000000000000000, #98 ) ;
#11 = CC_DESIGN_PERSON_AND_ORGANIZATION_ASSIGNMENT ( #27, #195, ( #194 ) ) ;
#12 = ORIENTED_EDGE ( 'NONE', *, *, #24, .F. ) ;
#13 = FACE_OUTER_BOUND ( 'NONE', #122, .T. ) ;
#14 = DIRECTION ( 'NONE',  ( 4.275831445896958607E-31, 1.000000000000000000, 1.224646799147353207E-16 ) ) ;
#15 = EDGE_LOOP ( 'NONE', ( #217 ) ) ;
#16 = APPROVAL_PERSON_ORGANIZATION ( #204, #146, #168 ) ;
#17 = SHAPE_DEFINITION_REPRESENTATION ( #61, #139 ) ;
#18 = CARTESIAN_POINT ( 'NONE',  ( 9.668120940188749600E-15, -0.4999999999999981681, 2.769059892324150951 ) ) ;
#19 = ORIENTED_EDGE ( 'NONE', *, *, #171, .F. ) ;
#20 = AXIS2_PLACEMENT_3D ( 'NONE', #33, #59, #113 ) ;
#21 = APPROVAL_ROLE ( '' ) ;
#22 = DATE_TIME_ROLE ( 'creation_date' ) ;
#23 =( NAMED_UNIT ( * ) SI_UNIT ( $, .STERADIAN. ) SOLID_ANGLE_UNIT ( ) );
#24 = EDGE_CURVE ( 'NONE', #203, #203, #72, .T. ) ;
#25 = CC_DESIGN_APPROVAL ( #153, ( #44 ) ) ;
#26 = APPLICATION_PROTOCOL_DEFINITION ( 'international standard', 'config_control_design', 1994, #156 ) ;
#27 = PERSON_AND_ORGANIZATION ( #237, #177 ) ;
#28 = CARTESIAN_POINT ( 'NONE',  ( 1.047444401652940007E-13, 2.999519565323652267E-33, 30.00000000000000000 ) ) ;
#29 = CC_DESIGN_PERSON_AND_ORGANIZATION_ASSIGNMENT ( #7, #84, ( #162 ) ) ;
#30 = FACE_BOUND ( 'NONE', #173, .T. ) ;
#31 = DIRECTION ( 'NONE',  ( 0.0000000000000000000, 1.000000000000000000, 0.0000000000000000000 ) ) ;
#32 = CARTESIAN_POINT ( 'NONE',  ( 7.386124215856592732E-15, 1.499759782661853845E-33, 2.115470053837924524 ) ) ;
#33 = CARTESIAN_POINT ( 'NONE',  ( 7.386124215856592732E-15, -2.590703630124693083E-16, 2.115470053837924524 ) ) ;
#34 = CC_DESIGN_APPROVAL ( #200, ( #194 ) ) ;
#35 = VERTEX_POINT ( 'NONE', #18 ) ;
#36 = ADVANCED_FACE ( 'NONE', ( #30, #13 ), #8, .T. ) ;
#37 = CARTESIAN_POINT ( 'NONE',  ( 7.386124215856592732E-15, 0.1999999999999997613, 2.115470053837924524 ) ) ;
#38 = CC_DESIGN_SECURITY_CLASSIFICATION ( #162, ( #194 ) ) ;
#39 = MECHANICAL_CONTEXT ( 'NONE', #142, 'mechanical' ) ;
#40 = APPROVAL_DATE_TIME ( #209, #200 ) ;
#41 = EDGE_CURVE ( 'NONE', #76, #76, #225, .T. ) ;
#42 = UNCERTAINTY_MEASURE_WITH_UNIT (LENGTH_MEASURE( 1.000000000000000082E-05 ), #77, 'distance_accuracy_value', 'NONE');
#43 = AXIS2_PLACEMENT_3D ( 'NONE', #179, #192, #218 ) ;
#44 = PRODUCT_DEFINITION ( 'UNKNOWN', '', #194, #65 ) ;
#45 = PERSON_AND_ORGANIZATION_ROLE ( 'design_owner' ) ;
#46 = ORIENTED_EDGE ( 'NONE', *, *, #99, .T. ) ;
#47 = PLANE ( 'NONE',  #110 ) ;
#48 = CARTESIAN_POINT ( 'NONE',  ( 9.668120940188749600E-15, -3.453391672334931633E-16, 2.769059892324150951 ) ) ;
#49 = AXIS2_PLACEMENT_3D ( 'NONE', #87, #70, #238 ) ;
#50 = CYLINDRICAL_SURFACE ( 'NONE', #43, 0.2000000000000000389 ) ;
#51 = ORIENTED_EDGE ( 'NONE', *, *, #24, .T. ) ;
#52 = CARTESIAN_POINT ( 'NONE',  ( 1.027286324744424889E-14, -3.669401800952952551E-16, 2.942264973081041290 ) ) ;
#53 = CARTESIAN_POINT ( 'NONE',  ( 7.386124215856592732E-15, -2.168404344971008868E-16, 2.115470053837924524 ) ) ;
#54 = MANIFOLD_SOLID_BREP ( 'Corps-Déplacer/Copier1[2]', #66 ) ;
#55 = MANIFOLD_SOLID_BREP ( 'Corps-Déplacer/Copier1[1]', #96 ) ;
#56 = DIRECTION ( 'NONE',  ( 3.491481338843133355E-15, -1.224646799147353207E-16, 1.000000000000000000 ) ) ;
#57 = LOCAL_TIME ( 13, 11, 14.00000000000000000, #132 ) ;
#58 = ORIENTED_EDGE ( 'NONE', *, *, #41, .F. ) ;
#59 = DIRECTION ( 'NONE',  ( -3.491481338843133355E-15, 1.224646799147353207E-16, -1.000000000000000000 ) ) ;
#60 = APPROVAL_STATUS ( 'not_yet_approved' ) ;
#61 = PRODUCT_DEFINITION_SHAPE ( 'NONE', 'NONE',  #44 ) ;
#62 = CONICAL_SURFACE ( 'NONE', #83, 0.3999999999999989675, 0.7853981633974694843 ) ;
#63 = PERSON_AND_ORGANIZATION ( #237, #177 ) ;
#64 = ORIENTED_EDGE ( 'NONE', *, *, #107, .T. ) ;
#65 = DESIGN_CONTEXT ( 'detailed design', #156, 'design' ) ;
#66 = CLOSED_SHELL ( 'NONE', ( #82, #3, #89 ) ) ;
#67 = AXIS2_PLACEMENT_3D ( 'NONE', #32, #73, #180 ) ;
#68 = EDGE_LOOP ( 'NONE', ( #197 ) ) ;
#69 = DIRECTION ( 'NONE',  ( 0.0000000000000000000, -1.000000000000000000, 0.0000000000000000000 ) ) ;
#70 = DIRECTION ( 'NONE',  ( -3.491481338843133355E-15, 1.224646799147353207E-16, -1.000000000000000000 ) ) ;
#71 = LOCAL_TIME ( 13, 11, 14.00000000000000000, #140 ) ;
#72 = CIRCLE ( 'NONE', #158, 0.4999999999999991673 ) ;
#73 = DIRECTION ( 'NONE',  ( 3.491481338843133355E-15, -1.224646799147353207E-16, 1.000000000000000000 ) ) ;
#74 = FACE_OUTER_BOUND ( 'NONE', #1, .T. ) ;
#75 = DIRECTION ( 'NONE',  ( -3.491481338843133355E-15, 1.224646799147353207E-16, -1.000000000000000000 ) ) ;
#76 = VERTEX_POINT ( 'NONE', #37 ) ;
#77 =( LENGTH_UNIT ( ) NAMED_UNIT ( * ) SI_UNIT ( .MILLI., .METRE. ) );
#78 = CIRCLE ( 'NONE', #5, 0.2669872981077789920 ) ;
#79 = APPROVAL_ROLE ( '' ) ;
#80 = EDGE_LOOP ( 'NONE', ( #212 ) ) ;
#81 = LOCAL_TIME ( 13, 11, 14.00000000000000000, #157 ) ;
#82 = ADVANCED_FACE ( 'NONE', ( #128 ), #208, .T. ) ;
#83 = AXIS2_PLACEMENT_3D ( 'NONE', #164, #75, #126 ) ;
#84 = PERSON_AND_ORGANIZATION_ROLE ( 'classification_officer' ) ;
#85 = ORIENTED_EDGE ( 'NONE', *, *, #241, .T. ) ;
#86 = EDGE_LOOP ( 'NONE', ( #85 ) ) ;
#87 = CARTESIAN_POINT ( 'NONE',  ( 1.047444401652940007E-13, -3.673940397442059178E-15, 30.00000000000000000 ) ) ;
#88 = FACE_OUTER_BOUND ( 'NONE', #214, .T. ) ;
#89 = ADVANCED_FACE ( 'NONE', ( #74 ), #109, .T. ) ;
#90 = AXIS2_PLACEMENT_3D ( 'NONE', #233, #131, #31 ) ;
#91 = AXIS2_PLACEMENT_3D ( 'NONE', #48, #112, #69 ) ;
#92 = CALENDAR_DATE ( 2021, 10, 11 ) ;
#93 = ADVANCED_FACE ( 'NONE', ( #160 ), #47, .F. ) ;
#94 = DIRECTION ( 'NONE',  ( 4.275831445896958607E-31, 1.000000000000000000, 1.224646799147353207E-16 ) ) ;
#95 = CARTESIAN_POINT ( 'NONE',  ( 1.043952920314096936E-13, 0.4999999999999954481, 29.90000000000000213 ) ) ;
#96 = CLOSED_SHELL ( 'NONE', ( #138, #150, #93, #36, #232, #206 ) ) ;
#97 = CIRCLE ( 'NONE', #20, 0.2000000000000000389 ) ;
#98 = COORDINATED_UNIVERSAL_TIME_OFFSET ( 1, 0, .AHEAD. ) ;
#99 = EDGE_CURVE ( 'NONE', #35, #35, #183, .T. ) ;
#100 = PRODUCT ( '955380', '955380', '', ( #39 ) ) ;
#101 = PERSON_AND_ORGANIZATION ( #237, #177 ) ;
#102 = DATE_AND_TIME ( #155, #10 ) ;
#103 = TOROIDAL_SURFACE ( 'NONE', #199, 0.6999999999999999556, 0.5000000000000000000 ) ;
#104 = PERSON_AND_ORGANIZATION ( #237, #177 ) ;
#105 = AXIS2_PLACEMENT_3D ( 'NONE', #159, #234, #201 ) ;
#106 = FACE_OUTER_BOUND ( 'NONE', #15, .T. ) ;
#107 = EDGE_CURVE ( 'NONE', #186, #186, #240, .T. ) ;
#108 = DIRECTION ( 'NONE',  ( 0.0000000000000000000, -1.000000000000000000, 0.0000000000000000000 ) ) ;
#109 = PLANE ( 'NONE',  #67 ) ;
#110 = AXIS2_PLACEMENT_3D ( 'NONE', #28, #111, #145 ) ;
#111 = DIRECTION ( 'NONE',  ( -3.491481338843133355E-15, 1.224646799147353207E-16, -1.000000000000000000 ) ) ;
#112 = DIRECTION ( 'NONE',  ( -3.491481338843133355E-15, 1.247135059052984700E-16, -1.000000000000000000 ) ) ;
#113 = DIRECTION ( 'NONE',  ( 0.0000000000000000000, 1.000000000000000000, 0.0000000000000000000 ) ) ;
#114 = DATE_AND_TIME ( #92, #57 ) ;
#115 = ORIENTED_EDGE ( 'NONE', *, *, #171, .T. ) ;
#116 = DIRECTION ( 'NONE',  ( -3.491481338843133355E-15, 1.224646799147353207E-16, -1.000000000000000000 ) ) ;
#117 = PRODUCT_RELATED_PRODUCT_CATEGORY ( 'detail', '', ( #100 ) ) ;
#118 = FACE_OUTER_BOUND ( 'NONE', #224, .T. ) ;
#119 = APPROVAL_PERSON_ORGANIZATION ( #63, #153, #21 ) ;
#120 = PERSON_AND_ORGANIZATION_ROLE ( 'creator' ) ;
#121 = COORDINATED_UNIVERSAL_TIME_OFFSET ( 1, 0, .AHEAD. ) ;
#122 = EDGE_LOOP ( 'NONE', ( #46 ) ) ;
#123 = CC_DESIGN_PERSON_AND_ORGANIZATION_ASSIGNMENT ( #104, #175, ( #194 ) ) ;
#124 = ORIENTED_EDGE ( 'NONE', *, *, #241, .F. ) ;
#125 = DATE_AND_TIME ( #213, #71 ) ;
#126 = DIRECTION ( 'NONE',  ( 0.0000000000000000000, 1.000000000000000000, 0.0000000000000000000 ) ) ;
#127 = APPROVAL_PERSON_ORGANIZATION ( #101, #200, #79 ) ;
#128 = FACE_OUTER_BOUND ( 'NONE', #80, .T. ) ;
#129 = EDGE_LOOP ( 'NONE', ( #189 ) ) ;
#130 = CIRCLE ( 'NONE', #2, 0.2000000000000000111 ) ;
#131 = DIRECTION ( 'NONE',  ( -3.491481338843133355E-15, 1.224646799147353207E-16, -1.000000000000000000 ) ) ;
#132 = COORDINATED_UNIVERSAL_TIME_OFFSET ( 1, 0, .AHEAD. ) ;
#133 = CC_DESIGN_PERSON_AND_ORGANIZATION_ASSIGNMENT ( #135, #120, ( #44 ) ) ;
#134 = FACE_OUTER_BOUND ( 'NONE', #68, .T. ) ;
#135 = PERSON_AND_ORGANIZATION ( #237, #177 ) ;
#136 = CALENDAR_DATE ( 2021, 10, 11 ) ;
#137 = CARTESIAN_POINT ( 'NONE',  ( 0.0000000000000000000, 0.0000000000000000000, 0.0000000000000000000 ) ) ;
#138 = ADVANCED_FACE ( 'NONE', ( #163, #181 ), #182, .T. ) ;
#139 = ADVANCED_BREP_SHAPE_REPRESENTATION ( '955380', ( #55, #54, #174 ), #211 ) ;
#140 = COORDINATED_UNIVERSAL_TIME_OFFSET ( 1, 0, .AHEAD. ) ;
#141 = FACE_BOUND ( 'NONE', #9, .T. ) ;
#142 = APPLICATION_CONTEXT ( 'configuration controlled 3d designs of mechanical parts and assemblies' ) ;
#143 = FACE_OUTER_BOUND ( 'NONE', #86, .T. ) ;
#144 = AXIS2_PLACEMENT_3D ( 'NONE', #243, #56, #184 ) ;
#145 = DIRECTION ( 'NONE',  ( 4.275831445896958607E-31, 1.000000000000000000, 1.224646799147353207E-16 ) ) ;
#146 = APPROVAL ( #152, 'UNSPECIFIED' ) ;
#147 = ORIENTED_EDGE ( 'NONE', *, *, #99, .F. ) ;
#148 = EDGE_LOOP ( 'NONE', ( #147 ) ) ;
#149 = LOCAL_TIME ( 13, 11, 14.00000000000000000, #121 ) ;
#150 = ADVANCED_FACE ( 'NONE', ( #88, #141 ), #62, .T. ) ;
#151 = CARTESIAN_POINT ( 'NONE',  ( 4.031615381703254792E-16, 0.1999999999999999833, 0.1154700538379245522 ) ) ;
#152 = APPROVAL_STATUS ( 'not_yet_approved' ) ;
#153 = APPROVAL ( #60, 'UNSPECIFIED' ) ;
#154 = DIRECTION ( 'NONE',  ( 0.0000000000000000000, -1.000000000000000000, 0.0000000000000000000 ) ) ;
#155 = CALENDAR_DATE ( 2021, 10, 11 ) ;
#156 = APPLICATION_CONTEXT ( 'configuration controlled 3d designs of mechanical parts and assemblies' ) ;
#157 = COORDINATED_UNIVERSAL_TIME_OFFSET ( 1, 0, .AHEAD. ) ;
#158 = AXIS2_PLACEMENT_3D ( 'NONE', #198, #219, #216 ) ;
#159 = CARTESIAN_POINT ( 'NONE',  ( 3.491481338843133254E-12, -1.224646799147353249E-13, 1000.000000000000000 ) ) ;
#160 = FACE_OUTER_BOUND ( 'NONE', #129, .T. ) ;
#161 = CC_DESIGN_DATE_AND_TIME_ASSIGNMENT ( #228, #22, ( #44 ) ) ;
#162 = SECURITY_CLASSIFICATION ( '', '', #230 ) ;
#163 = FACE_OUTER_BOUND ( 'NONE', #185, .T. ) ;
#164 = CARTESIAN_POINT ( 'NONE',  ( 1.047444401652940007E-13, -3.673940397442059178E-15, 30.00000000000000000 ) ) ;
#165 = VERTEX_POINT ( 'NONE', #151 ) ;
#166 = DIRECTION ( 'NONE',  ( 3.491481338843133355E-15, -1.247135059052984700E-16, 1.000000000000000000 ) ) ;
#167 = DIRECTION ( 'NONE',  ( -3.491481338843133355E-15, 1.224646799147353207E-16, -1.000000000000000000 ) ) ;
#168 = APPROVAL_ROLE ( '' ) ;
#169 = VERTEX_POINT ( 'NONE', #187 ) ;
#170 = APPROVAL_STATUS ( 'not_yet_approved' ) ;
#171 = EDGE_CURVE ( 'NONE', #169, #169, #78, .T. ) ;
#172 = APPROVAL_DATE_TIME ( #102, #153 ) ;
#173 = EDGE_LOOP ( 'NONE', ( #115 ) ) ;
#174 = AXIS2_PLACEMENT_3D ( 'NONE', #137, #207, #210 ) ;
#175 = PERSON_AND_ORGANIZATION_ROLE ( 'design_supplier' ) ;
#176 = EDGE_LOOP ( 'NONE', ( #58 ) ) ;
#177 = ORGANIZATION ( 'UNSPECIFIED', 'UNSPECIFIED', '' ) ;
#178 = CARTESIAN_POINT ( 'NONE',  ( 8.258994550567366605E-15, -2.950060635281224220E-16, 2.365470053837922304 ) ) ;
#179 = CARTESIAN_POINT ( 'NONE',  ( 0.0000000000000000000, 0.0000000000000000000, 0.0000000000000000000 ) ) ;
#180 = DIRECTION ( 'NONE',  ( -4.275831445896958607E-31, -1.000000000000000000, -1.224646799147353207E-16 ) ) ;
#181 = FACE_OUTER_BOUND ( 'NONE', #148, .T. ) ;
#182 = CYLINDRICAL_SURFACE ( 'NONE', #235, 0.4999999999999978351 ) ;
#183 = CIRCLE ( 'NONE', #91, 0.4999999999999978351 ) ;
#184 = DIRECTION ( 'NONE',  ( -4.275831445896958607E-31, -1.000000000000000000, -1.224646799147353207E-16 ) ) ;
#185 = EDGE_LOOP ( 'NONE', ( #51 ) ) ;
#186 = VERTEX_POINT ( 'NONE', #226 ) ;
#187 = CARTESIAN_POINT ( 'NONE',  ( 8.258994550567366605E-15, -0.2669872981077792695, 2.365470053837922304 ) ) ;
#188 = CALENDAR_DATE ( 2021, 10, 11 ) ;
#189 = ORIENTED_EDGE ( 'NONE', *, *, #107, .F. ) ;
#190 = CC_DESIGN_APPROVAL ( #146, ( #162 ) ) ;
#191 = DATE_TIME_ROLE ( 'classification_date' ) ;
#192 = DIRECTION ( 'NONE',  ( -3.491481338843133355E-15, 1.224646799147353207E-16, -1.000000000000000000 ) ) ;
#193 = AXIS2_PLACEMENT_3D ( 'NONE', #52, #196, #108 ) ;
#194 = PRODUCT_DEFINITION_FORMATION_WITH_SPECIFIED_SOURCE ( 'ANY', '', #100, .NOT_KNOWN. ) ;
#195 = PERSON_AND_ORGANIZATION_ROLE ( 'creator' ) ;
#196 = DIRECTION ( 'NONE',  ( 3.491481338843133355E-15, -1.247135059052984700E-16, 1.000000000000000000 ) ) ;
#197 = ORIENTED_EDGE ( 'NONE', *, *, #41, .T. ) ;
#198 = CARTESIAN_POINT ( 'NONE',  ( 1.043952920314096936E-13, -3.661693929450586610E-15, 29.90000000000000213 ) ) ;
#199 = AXIS2_PLACEMENT_3D ( 'NONE', #53, #116, #94 ) ;
#200 = APPROVAL ( #170, 'UNSPECIFIED' ) ;
#201 = DIRECTION ( 'NONE',  ( -4.554490559825206315E-31, -1.000000000000000000, -1.281975124255702555E-16 ) ) ;
#202 = PLANE ( 'NONE',  #144 ) ;
#203 = VERTEX_POINT ( 'NONE', #95 ) ;
#204 = PERSON_AND_ORGANIZATION ( #237, #177 ) ;
#205 = VERTEX_POINT ( 'NONE', #222 ) ;
#206 = ADVANCED_FACE ( 'NONE', ( #227, #118 ), #103, .F. ) ;
#207 = DIRECTION ( 'NONE',  ( 0.0000000000000000000, 0.0000000000000000000, 1.000000000000000000 ) ) ;
#208 = CONICAL_SURFACE ( 'NONE', #105, 1732.050807568886512, 1.047197551196600074 ) ;
#209 = DATE_AND_TIME ( #136, #81 ) ;
#210 = DIRECTION ( 'NONE',  ( 1.000000000000000000, 0.0000000000000000000, 0.0000000000000000000 ) ) ;
#211 =( GEOMETRIC_REPRESENTATION_CONTEXT ( 3 ) GLOBAL_UNCERTAINTY_ASSIGNED_CONTEXT ( ( #42 ) ) GLOBAL_UNIT_ASSIGNED_CONTEXT ( ( #77, #239, #23 ) ) REPRESENTATION_CONTEXT ( 'NONE', 'WORKASPACE' ) );
#212 = ORIENTED_EDGE ( 'NONE', *, *, #215, .T. ) ;
#213 = CALENDAR_DATE ( 2021, 10, 11 ) ;
#214 = EDGE_LOOP ( 'NONE', ( #12 ) ) ;
#215 = EDGE_CURVE ( 'NONE', #165, #165, #130, .T. ) ;
#216 = DIRECTION ( 'NONE',  ( 0.0000000000000000000, 1.000000000000000000, 0.0000000000000000000 ) ) ;
#217 = ORIENTED_EDGE ( 'NONE', *, *, #215, .F. ) ;
#218 = DIRECTION ( 'NONE',  ( 4.275831445896958607E-31, 1.000000000000000000, 1.224646799147353207E-16 ) ) ;
#219 = DIRECTION ( 'NONE',  ( -3.491481338843133355E-15, 1.224646799147353207E-16, -1.000000000000000000 ) ) ;
#220 = APPROVAL_DATE_TIME ( #114, #146 ) ;
#221 = CARTESIAN_POINT ( 'NONE',  ( 4.031615381703253806E-16, -1.414100318299867916E-17, 0.1154700538379245245 ) ) ;
#222 = CARTESIAN_POINT ( 'NONE',  ( 7.386124215856592732E-15, 0.1999999999999997613, 2.115470053837924524 ) ) ;
#223 = CC_DESIGN_PERSON_AND_ORGANIZATION_ASSIGNMENT ( #4, #45, ( #100 ) ) ;
#224 = EDGE_LOOP ( 'NONE', ( #19 ) ) ;
#225 = CIRCLE ( 'NONE', #90, 0.2000000000000000389 ) ;
#226 = CARTESIAN_POINT ( 'NONE',  ( 1.047444401652940007E-13, 0.3999999999999953038, 30.00000000000000000 ) ) ;
#227 = FACE_OUTER_BOUND ( 'NONE', #176, .T. ) ;
#228 = DATE_AND_TIME ( #188, #149 ) ;
#229 = CC_DESIGN_DATE_AND_TIME_ASSIGNMENT ( #125, #191, ( #162 ) ) ;
#230 = SECURITY_CLASSIFICATION_LEVEL ( 'unclassified' ) ;
#231 = DIRECTION ( 'NONE',  ( -3.491481338843133355E-15, 1.224646799147353207E-16, -1.000000000000000000 ) ) ;
#232 = ADVANCED_FACE ( 'NONE', ( #134 ), #202, .F. ) ;
#233 = CARTESIAN_POINT ( 'NONE',  ( 7.386124215856592732E-15, -2.590703630124693083E-16, 2.115470053837924524 ) ) ;
#234 = DIRECTION ( 'NONE',  ( 3.491481338843133355E-15, -1.224646799147353207E-16, 1.000000000000000000 ) ) ;
#235 = AXIS2_PLACEMENT_3D ( 'NONE', #236, #231, #14 ) ;
#236 = CARTESIAN_POINT ( 'NONE',  ( 0.0000000000000000000, 0.0000000000000000000, 0.0000000000000000000 ) ) ;
#237 = PERSON ( 'UNSPECIFIED', 'UNSPECIFIED', 'UNSPECIFIED', ('UNSPECIFIED'), ('UNSPECIFIED'), ('UNSPECIFIED') ) ;
#238 = DIRECTION ( 'NONE',  ( 0.0000000000000000000, 1.000000000000000000, 0.0000000000000000000 ) ) ;
#239 =( NAMED_UNIT ( * ) PLANE_ANGLE_UNIT ( ) SI_UNIT ( $, .RADIAN. ) );
#240 = CIRCLE ( 'NONE', #49, 0.3999999999999989675 ) ;
#241 = EDGE_CURVE ( 'NONE', #205, #205, #97, .T. ) ;
#242 = DIRECTION ( 'NONE',  ( 4.814824860968089633E-31, 1.000000000000000000, 1.355252715606880543E-16 ) ) ;
#243 = CARTESIAN_POINT ( 'NONE',  ( 7.386124215856592732E-15, 1.499759782661853845E-33, 2.115470053837924524 ) ) ;
ENDSEC;
END-ISO-10303-21;
