ISO-10303-21;
HEADER;
FILE_DESCRIPTION (( 'STEP AP203' ),
    '1' );
FILE_NAME ('955379.step',
    '2021-11-10T12:11:13',
    ( '' ),
    ( '' ),
    'SwSTEP 2.0',
    'SolidWorks 2019',
    '' );
FILE_SCHEMA (( 'CONFIG_CONTROL_DESIGN' ));
ENDSEC;

DATA;
#1 = PRODUCT_DEFINITION_FORMATION_WITH_SPECIFIED_SOURCE ( 'ANY', '', #183, .NOT_KNOWN. ) ;
#2 = FACE_OUTER_BOUND ( 'NONE', #96, .T. ) ;
#3 = DIRECTION ( 'NONE',  ( 3.491481338843133355E-15, -1.224646799147353207E-16, 1.000000000000000000 ) ) ;
#4 = CARTESIAN_POINT ( 'NONE',  ( 5.589988354163735893E-15, 1.312289809829122157E-33, 1.601036297108184181 ) ) ;
#5 = FACE_OUTER_BOUND ( 'NONE', #242, .T. ) ;
#6 = CIRCLE ( 'NONE', #194, 0.1749999999999999334 ) ;
#7 = PLANE ( 'NONE',  #241 ) ;
#8 = EDGE_LOOP ( 'NONE', ( #67 ) ) ;
#9 = CARTESIAN_POINT ( 'NONE',  ( 1.043952920314096936E-13, 0.4999999999999954481, 29.90000000000000213 ) ) ;
#10 = ADVANCED_FACE ( 'NONE', ( #81, #151 ), #22, .T. ) ;
#11 = EDGE_LOOP ( 'NONE', ( #25 ) ) ;
#12 = PERSON_AND_ORGANIZATION_ROLE ( 'creator' ) ;
#13 = DIRECTION ( 'NONE',  ( 0.0000000000000000000, 1.000000000000000000, 0.0000000000000000000 ) ) ;
#14 = DATE_AND_TIME ( #132, #116 ) ;
#15 = FACE_OUTER_BOUND ( 'NONE', #99, .T. ) ;
#16 = PRODUCT_DEFINITION_SHAPE ( 'NONE', 'NONE',  #222 ) ;
#17 = CC_DESIGN_PERSON_AND_ORGANIZATION_ASSIGNMENT ( #141, #202, ( #163 ) ) ;
#18 = COORDINATED_UNIVERSAL_TIME_OFFSET ( 1, 0, .AHEAD. ) ;
#19 = DIRECTION ( 'NONE',  ( 4.275831445896958607E-31, 1.000000000000000000, 1.224646799147353207E-16 ) ) ;
#20 = CLOSED_SHELL ( 'NONE', ( #89, #235, #193 ) ) ;
#21 = DIRECTION ( 'NONE',  ( -3.491481338843133355E-15, 1.224646799147353207E-16, -1.000000000000000000 ) ) ;
#22 = CONICAL_SURFACE ( 'NONE', #101, 0.3999999999999989675, 0.7853981633974694843 ) ;
#23 = LOCAL_TIME ( 13, 11, 13.00000000000000000, #18 ) ;
#24 = CARTESIAN_POINT ( 'NONE',  ( 1.047444401652940007E-13, 2.999519565323652267E-33, 30.00000000000000000 ) ) ;
#25 = ORIENTED_EDGE ( 'NONE', *, *, #93, .T. ) ;
#26 = DIRECTION ( 'NONE',  ( 3.491481338843133355E-15, -1.247135059052984700E-16, 1.000000000000000000 ) ) ;
#27 = EDGE_LOOP ( 'NONE', ( #218 ) ) ;
#28 = CYLINDRICAL_SURFACE ( 'NONE', #107, 0.4999999999999978351 ) ;
#29 = ORIENTED_EDGE ( 'NONE', *, *, #93, .F. ) ;
#30 = AXIS2_PLACEMENT_3D ( 'NONE', #48, #228, #105 ) ;
#31 = ORGANIZATION ( 'UNSPECIFIED', 'UNSPECIFIED', '' ) ;
#32 = APPROVAL_STATUS ( 'not_yet_approved' ) ;
#33 = COORDINATED_UNIVERSAL_TIME_OFFSET ( 1, 0, .AHEAD. ) ;
#34 = ORIENTED_EDGE ( 'NONE', *, *, #118, .F. ) ;
#35 = DATE_TIME_ROLE ( 'creation_date' ) ;
#36 = CONICAL_SURFACE ( 'NONE', #58, 1732.050807568885830, 1.047197551196599852 ) ;
#37 = COORDINATED_UNIVERSAL_TIME_OFFSET ( 1, 0, .AHEAD. ) ;
#38 = CARTESIAN_POINT ( 'NONE',  ( 8.023170655309766400E-15, -0.4999999999999981681, 2.297927405783632970 ) ) ;
#39 = AXIS2_PLACEMENT_3D ( 'NONE', #46, #88, #100 ) ;
#40 = FACE_OUTER_BOUND ( 'NONE', #76, .T. ) ;
#41 = DESIGN_CONTEXT ( 'detailed design', #188, 'design' ) ;
#42 = CARTESIAN_POINT ( 'NONE',  ( 6.462858688874509766E-15, -0.2419872981077793306, 1.851036297108181516 ) ) ;
#43 = APPROVAL ( #143, 'UNSPECIFIED' ) ;
#44 = AXIS2_PLACEMENT_3D ( 'NONE', #174, #102, #224 ) ;
#45 = APPROVAL_PERSON_ORGANIZATION ( #161, #43, #57 ) ;
#46 = CARTESIAN_POINT ( 'NONE',  ( 3.527663458990347758E-16, -1.237337778512384734E-17, 0.1010362971081839728 ) ) ;
#47 = EDGE_LOOP ( 'NONE', ( #114 ) ) ;
#48 = CARTESIAN_POINT ( 'NONE',  ( 5.589988354163735893E-15, -1.960703976572268330E-16, 1.601036297108184181 ) ) ;
#49 = AXIS2_PLACEMENT_3D ( 'NONE', #66, #139, #232 ) ;
#50 = AXIS2_PLACEMENT_3D ( 'NONE', #4, #87, #173 ) ;
#51 = APPROVAL_ROLE ( '' ) ;
#52 =( NAMED_UNIT ( * ) PLANE_ANGLE_UNIT ( ) SI_UNIT ( $, .RADIAN. ) );
#53 = CC_DESIGN_PERSON_AND_ORGANIZATION_ASSIGNMENT ( #147, #186, ( #1 ) ) ;
#54 = ORIENTED_EDGE ( 'NONE', *, *, #226, .T. ) ;
#55 = FACE_BOUND ( 'NONE', #11, .T. ) ;
#56 = CC_DESIGN_DATE_AND_TIME_ASSIGNMENT ( #77, #35, ( #222 ) ) ;
#57 = APPROVAL_ROLE ( '' ) ;
#58 = AXIS2_PLACEMENT_3D ( 'NONE', #133, #209, #119 ) ;
#59 = CC_DESIGN_APPROVAL ( #43, ( #163 ) ) ;
#60 = CARTESIAN_POINT ( 'NONE',  ( 5.589988354163735893E-15, 0.1749999999999997669, 1.601036297108184181 ) ) ;
#61 = FACE_OUTER_BOUND ( 'NONE', #27, .T. ) ;
#62 = MANIFOLD_SOLID_BREP ( 'Corps-Déplacer/Copier1[1]', #112 ) ;
#63 = CC_DESIGN_PERSON_AND_ORGANIZATION_ASSIGNMENT ( #159, #203, ( #1 ) ) ;
#64 = FACE_OUTER_BOUND ( 'NONE', #8, .T. ) ;
#65 = UNCERTAINTY_MEASURE_WITH_UNIT (LENGTH_MEASURE( 1.000000000000000082E-05 ), #184, 'distance_accuracy_value', 'NONE');
#66 = CARTESIAN_POINT ( 'NONE',  ( 5.589988354163735893E-15, -2.168404344971008868E-16, 1.601036297108184181 ) ) ;
#67 = ORIENTED_EDGE ( 'NONE', *, *, #118, .T. ) ;
#68 = LOCAL_TIME ( 13, 11, 13.00000000000000000, #33 ) ;
#69 = DIRECTION ( 'NONE',  ( 4.275831445896958607E-31, 1.000000000000000000, 1.224646799147353207E-16 ) ) ;
#70 = EDGE_CURVE ( 'NONE', #156, #156, #211, .T. ) ;
#71 = PERSON_AND_ORGANIZATION ( #197, #31 ) ;
#72 = APPROVAL_DATE_TIME ( #115, #110 ) ;
#73 = CC_DESIGN_APPROVAL ( #110, ( #1 ) ) ;
#74 = APPLICATION_PROTOCOL_DEFINITION ( 'international standard', 'config_control_design', 1994, #188 ) ;
#75 = ADVANCED_BREP_SHAPE_REPRESENTATION ( '955379', ( #62, #142, #172 ), #84 ) ;
#76 = EDGE_LOOP ( 'NONE', ( #169 ) ) ;
#77 = DATE_AND_TIME ( #166, #149 ) ;
#78 = DIRECTION ( 'NONE',  ( 0.0000000000000000000, -1.000000000000000000, 0.0000000000000000000 ) ) ;
#79 = AXIS2_PLACEMENT_3D ( 'NONE', #106, #140, #217 ) ;
#80 = APPROVAL_PERSON_ORGANIZATION ( #239, #110, #51 ) ;
#81 = FACE_OUTER_BOUND ( 'NONE', #123, .T. ) ;
#82 = CC_DESIGN_APPROVAL ( #205, ( #222 ) ) ;
#83 = FACE_OUTER_BOUND ( 'NONE', #134, .T. ) ;
#84 =( GEOMETRIC_REPRESENTATION_CONTEXT ( 3 ) GLOBAL_UNCERTAINTY_ASSIGNED_CONTEXT ( ( #65 ) ) GLOBAL_UNIT_ASSIGNED_CONTEXT ( ( #184, #52, #145 ) ) REPRESENTATION_CONTEXT ( 'NONE', 'WORKASPACE' ) );
#85 = ADVANCED_FACE ( 'NONE', ( #55, #165 ), #162, .T. ) ;
#86 = CYLINDRICAL_SURFACE ( 'NONE', #44, 0.1749999999999999611 ) ;
#87 = DIRECTION ( 'NONE',  ( 3.491481338843133355E-15, -1.224646799147353207E-16, 1.000000000000000000 ) ) ;
#88 = DIRECTION ( 'NONE',  ( -3.491481338843133355E-15, 1.224646799147353207E-16, -1.000000000000000000 ) ) ;
#89 = ADVANCED_FACE ( 'NONE', ( #15 ), #36, .T. ) ;
#90 = FACE_OUTER_BOUND ( 'NONE', #170, .T. ) ;
#91 = MECHANICAL_CONTEXT ( 'NONE', #177, 'mechanical' ) ;
#92 = COORDINATED_UNIVERSAL_TIME_OFFSET ( 1, 0, .AHEAD. ) ;
#93 = EDGE_CURVE ( 'NONE', #215, #215, #191, .T. ) ;
#94 = DIRECTION ( 'NONE',  ( 0.0000000000000000000, 1.000000000000000000, 0.0000000000000000000 ) ) ;
#95 = PERSON_AND_ORGANIZATION ( #197, #31 ) ;
#96 = EDGE_LOOP ( 'NONE', ( #34 ) ) ;
#97 = ORIENTED_EDGE ( 'NONE', *, *, #70, .T. ) ;
#98 = LOCAL_TIME ( 13, 11, 13.00000000000000000, #92 ) ;
#99 = EDGE_LOOP ( 'NONE', ( #144 ) ) ;
#100 = DIRECTION ( 'NONE',  ( 5.502656983963532260E-31, 1.000000000000000000, 1.548860246407863829E-16 ) ) ;
#101 = AXIS2_PLACEMENT_3D ( 'NONE', #185, #128, #94 ) ;
#102 = DIRECTION ( 'NONE',  ( -3.491481338843133355E-15, 1.224646799147353207E-16, -1.000000000000000000 ) ) ;
#103 = DIRECTION ( 'NONE',  ( 0.0000000000000000000, 1.000000000000000000, 0.0000000000000000000 ) ) ;
#104 = CC_DESIGN_PERSON_AND_ORGANIZATION_ASSIGNMENT ( #95, #12, ( #222 ) ) ;
#105 = DIRECTION ( 'NONE',  ( 0.0000000000000000000, 1.000000000000000000, 0.0000000000000000000 ) ) ;
#106 = CARTESIAN_POINT ( 'NONE',  ( 8.023170655309766400E-15, -2.865825830911442523E-16, 2.297927405783632970 ) ) ;
#107 = AXIS2_PLACEMENT_3D ( 'NONE', #154, #157, #19 ) ;
#108 = CALENDAR_DATE ( 2021, 10, 11 ) ;
#109 = DATE_AND_TIME ( #108, #68 ) ;
#110 = APPROVAL ( #164, 'UNSPECIFIED' ) ;
#111 = APPROVAL_DATE_TIME ( #14, #205 ) ;
#112 = CLOSED_SHELL ( 'NONE', ( #146, #10, #190, #85, #240, #152 ) ) ;
#113 = DIRECTION ( 'NONE',  ( -3.491481338843133355E-15, 1.224646799147353207E-16, -1.000000000000000000 ) ) ;
#114 = ORIENTED_EDGE ( 'NONE', *, *, #70, .F. ) ;
#115 = DATE_AND_TIME ( #125, #98 ) ;
#116 = LOCAL_TIME ( 13, 11, 13.00000000000000000, #37 ) ;
#117 = VERTEX_POINT ( 'NONE', #181 ) ;
#118 = EDGE_CURVE ( 'NONE', #158, #158, #6, .T. ) ;
#119 = DIRECTION ( 'NONE',  ( -4.554490559825208066E-31, -1.000000000000000000, -1.281975124255703048E-16 ) ) ;
#120 = CARTESIAN_POINT ( 'NONE',  ( 5.589988354163735893E-15, 1.312289809829122157E-33, 1.601036297108184181 ) ) ;
#121 = EDGE_LOOP ( 'NONE', ( #29 ) ) ;
#122 = PLANE ( 'NONE',  #50 ) ;
#123 = EDGE_LOOP ( 'NONE', ( #127 ) ) ;
#124 = CARTESIAN_POINT ( 'NONE',  ( 0.0000000000000000000, 0.0000000000000000000, 0.0000000000000000000 ) ) ;
#125 = CALENDAR_DATE ( 2021, 10, 11 ) ;
#126 = CC_DESIGN_PERSON_AND_ORGANIZATION_ASSIGNMENT ( #236, #207, ( #183 ) ) ;
#127 = ORIENTED_EDGE ( 'NONE', *, *, #230, .F. ) ;
#128 = DIRECTION ( 'NONE',  ( -3.491481338843133355E-15, 1.224646799147353207E-16, -1.000000000000000000 ) ) ;
#129 = APPLICATION_PROTOCOL_DEFINITION ( 'international standard', 'config_control_design', 1994, #177 ) ;
#130 = CIRCLE ( 'NONE', #39, 0.1749999999999999611 ) ;
#131 = DIRECTION ( 'NONE',  ( 3.491481338843133355E-15, -1.247135059052984700E-16, 1.000000000000000000 ) ) ;
#132 = CALENDAR_DATE ( 2021, 10, 11 ) ;
#133 = CARTESIAN_POINT ( 'NONE',  ( 3.491481338843133254E-12, -1.224646799147353249E-13, 1000.000000000000000 ) ) ;
#134 = EDGE_LOOP ( 'NONE', ( #204 ) ) ;
#135 = CARTESIAN_POINT ( 'NONE',  ( 3.527663458990348744E-16, 0.1749999999999999611, 0.1010362971081840006 ) ) ;
#136 = CIRCLE ( 'NONE', #79, 0.4999999999999978351 ) ;
#137 = CARTESIAN_POINT ( 'NONE',  ( 1.047444401652940007E-13, 0.3999999999999953038, 30.00000000000000000 ) ) ;
#138 = AXIS2_PLACEMENT_3D ( 'NONE', #206, #113, #13 ) ;
#139 = DIRECTION ( 'NONE',  ( -3.491481338843133355E-15, 1.224646799147353207E-16, -1.000000000000000000 ) ) ;
#140 = DIRECTION ( 'NONE',  ( -3.491481338843133355E-15, 1.247135059052984700E-16, -1.000000000000000000 ) ) ;
#141 = PERSON_AND_ORGANIZATION ( #197, #31 ) ;
#142 = MANIFOLD_SOLID_BREP ( 'Corps-Déplacer/Copier1[2]', #20 ) ;
#143 = APPROVAL_STATUS ( 'not_yet_approved' ) ;
#144 = ORIENTED_EDGE ( 'NONE', *, *, #180, .T. ) ;
#145 =( NAMED_UNIT ( * ) SI_UNIT ( $, .STERADIAN. ) SOLID_ANGLE_UNIT ( ) );
#146 = ADVANCED_FACE ( 'NONE', ( #83, #61 ), #28, .T. ) ;
#147 = PERSON_AND_ORGANIZATION ( #197, #31 ) ;
#148 = AXIS2_PLACEMENT_3D ( 'NONE', #179, #26, #229 ) ;
#149 = LOCAL_TIME ( 13, 11, 13.00000000000000000, #234 ) ;
#150 = APPROVAL_DATE_TIME ( #168, #43 ) ;
#151 = FACE_BOUND ( 'NONE', #167, .T. ) ;
#152 = ADVANCED_FACE ( 'NONE', ( #2, #198 ), #231, .F. ) ;
#153 = AXIS2_PLACEMENT_3D ( 'NONE', #175, #21, #103 ) ;
#154 = CARTESIAN_POINT ( 'NONE',  ( 0.0000000000000000000, 0.0000000000000000000, 0.0000000000000000000 ) ) ;
#155 = CC_DESIGN_SECURITY_CLASSIFICATION ( #163, ( #1 ) ) ;
#156 = VERTEX_POINT ( 'NONE', #137 ) ;
#157 = DIRECTION ( 'NONE',  ( -3.491481338843133355E-15, 1.224646799147353207E-16, -1.000000000000000000 ) ) ;
#158 = VERTEX_POINT ( 'NONE', #60 ) ;
#159 = PERSON_AND_ORGANIZATION ( #197, #31 ) ;
#160 = APPROVAL_ROLE ( '' ) ;
#161 = PERSON_AND_ORGANIZATION ( #197, #31 ) ;
#162 = CONICAL_SURFACE ( 'NONE', #208, 0.5999999999999979794, 0.5235987755982931535 ) ;
#163 = SECURITY_CLASSIFICATION ( '', '', #233 ) ;
#164 = APPROVAL_STATUS ( 'not_yet_approved' ) ;
#165 = FACE_OUTER_BOUND ( 'NONE', #196, .T. ) ;
#166 = CALENDAR_DATE ( 2021, 10, 11 ) ;
#167 = EDGE_LOOP ( 'NONE', ( #97 ) ) ;
#168 = DATE_AND_TIME ( #225, #23 ) ;
#169 = ORIENTED_EDGE ( 'NONE', *, *, #226, .F. ) ;
#170 = EDGE_LOOP ( 'NONE', ( #176 ) ) ;
#171 = DIRECTION ( 'NONE',  ( -3.491481338843133355E-15, 1.224646799147353207E-16, -1.000000000000000000 ) ) ;
#172 = AXIS2_PLACEMENT_3D ( 'NONE', #124, #221, #237 ) ;
#173 = DIRECTION ( 'NONE',  ( -4.275831445896958607E-31, -1.000000000000000000, -1.224646799147353207E-16 ) ) ;
#174 = CARTESIAN_POINT ( 'NONE',  ( 0.0000000000000000000, 0.0000000000000000000, 0.0000000000000000000 ) ) ;
#175 = CARTESIAN_POINT ( 'NONE',  ( 1.043952920314096936E-13, -3.661693929450586610E-15, 29.90000000000000213 ) ) ;
#176 = ORIENTED_EDGE ( 'NONE', *, *, #180, .F. ) ;
#177 = APPLICATION_CONTEXT ( 'configuration controlled 3d designs of mechanical parts and assemblies' ) ;
#178 = AXIS2_PLACEMENT_3D ( 'NONE', #24, #214, #69 ) ;
#179 = CARTESIAN_POINT ( 'NONE',  ( 6.462858688874509766E-15, -2.308492261703230127E-16, 1.851036297108181516 ) ) ;
#180 = EDGE_CURVE ( 'NONE', #200, #200, #130, .T. ) ;
#181 = CARTESIAN_POINT ( 'NONE',  ( 5.589988354163735893E-15, 0.1749999999999997669, 1.601036297108184181 ) ) ;
#182 = DATE_TIME_ROLE ( 'classification_date' ) ;
#183 = PRODUCT ( '955379', '955379', '', ( #91 ) ) ;
#184 =( LENGTH_UNIT ( ) NAMED_UNIT ( * ) SI_UNIT ( .MILLI., .METRE. ) );
#185 = CARTESIAN_POINT ( 'NONE',  ( 1.047444401652940007E-13, -3.673940397442059178E-15, 30.00000000000000000 ) ) ;
#186 = PERSON_AND_ORGANIZATION_ROLE ( 'creator' ) ;
#187 = CIRCLE ( 'NONE', #30, 0.1749999999999999334 ) ;
#188 = APPLICATION_CONTEXT ( 'configuration controlled 3d designs of mechanical parts and assemblies' ) ;
#189 = DIRECTION ( 'NONE',  ( 0.0000000000000000000, 1.000000000000000000, 0.0000000000000000000 ) ) ;
#190 = ADVANCED_FACE ( 'NONE', ( #227 ), #216, .F. ) ;
#191 = CIRCLE ( 'NONE', #148, 0.2419872981077790808 ) ;
#192 = DIRECTION ( 'NONE',  ( -4.275831445896958607E-31, -1.000000000000000000, -1.224646799147353207E-16 ) ) ;
#193 = ADVANCED_FACE ( 'NONE', ( #40 ), #7, .T. ) ;
#194 = AXIS2_PLACEMENT_3D ( 'NONE', #195, #171, #189 ) ;
#195 = CARTESIAN_POINT ( 'NONE',  ( 5.589988354163735893E-15, -1.960703976572268330E-16, 1.601036297108184181 ) ) ;
#196 = EDGE_LOOP ( 'NONE', ( #201 ) ) ;
#197 = PERSON ( 'UNSPECIFIED', 'UNSPECIFIED', 'UNSPECIFIED', ('UNSPECIFIED'), ('UNSPECIFIED'), ('UNSPECIFIED') ) ;
#198 = FACE_OUTER_BOUND ( 'NONE', #121, .T. ) ;
#199 = CC_DESIGN_DATE_AND_TIME_ASSIGNMENT ( #109, #182, ( #163 ) ) ;
#200 = VERTEX_POINT ( 'NONE', #135 ) ;
#201 = ORIENTED_EDGE ( 'NONE', *, *, #210, .T. ) ;
#202 = PERSON_AND_ORGANIZATION_ROLE ( 'classification_officer' ) ;
#203 = PERSON_AND_ORGANIZATION_ROLE ( 'design_supplier' ) ;
#204 = ORIENTED_EDGE ( 'NONE', *, *, #230, .T. ) ;
#205 = APPROVAL ( #32, 'UNSPECIFIED' ) ;
#206 = CARTESIAN_POINT ( 'NONE',  ( 1.047444401652940007E-13, -3.673940397442059178E-15, 30.00000000000000000 ) ) ;
#207 = PERSON_AND_ORGANIZATION_ROLE ( 'design_owner' ) ;
#208 = AXIS2_PLACEMENT_3D ( 'NONE', #238, #131, #78 ) ;
#209 = DIRECTION ( 'NONE',  ( 3.491481338843133355E-15, -1.224646799147353207E-16, 1.000000000000000000 ) ) ;
#210 = EDGE_CURVE ( 'NONE', #212, #212, #136, .T. ) ;
#211 = CIRCLE ( 'NONE', #138, 0.3999999999999989675 ) ;
#212 = VERTEX_POINT ( 'NONE', #38 ) ;
#213 = APPROVAL_PERSON_ORGANIZATION ( #71, #205, #160 ) ;
#214 = DIRECTION ( 'NONE',  ( -3.491481338843133355E-15, 1.224646799147353207E-16, -1.000000000000000000 ) ) ;
#215 = VERTEX_POINT ( 'NONE', #42 ) ;
#216 = PLANE ( 'NONE',  #178 ) ;
#217 = DIRECTION ( 'NONE',  ( 0.0000000000000000000, -1.000000000000000000, 0.0000000000000000000 ) ) ;
#218 = ORIENTED_EDGE ( 'NONE', *, *, #210, .F. ) ;
#219 = CIRCLE ( 'NONE', #153, 0.4999999999999991673 ) ;
#220 = VERTEX_POINT ( 'NONE', #9 ) ;
#221 = DIRECTION ( 'NONE',  ( 0.0000000000000000000, 0.0000000000000000000, 1.000000000000000000 ) ) ;
#222 = PRODUCT_DEFINITION ( 'UNKNOWN', '', #1, #41 ) ;
#223 = SHAPE_DEFINITION_REPRESENTATION ( #16, #75 ) ;
#224 = DIRECTION ( 'NONE',  ( 4.275831445896958607E-31, 1.000000000000000000, 1.224646799147353207E-16 ) ) ;
#225 = CALENDAR_DATE ( 2021, 10, 11 ) ;
#226 = EDGE_CURVE ( 'NONE', #117, #117, #187, .T. ) ;
#227 = FACE_OUTER_BOUND ( 'NONE', #47, .T. ) ;
#228 = DIRECTION ( 'NONE',  ( -3.491481338843133355E-15, 1.224646799147353207E-16, -1.000000000000000000 ) ) ;
#229 = DIRECTION ( 'NONE',  ( 0.0000000000000000000, -1.000000000000000000, 0.0000000000000000000 ) ) ;
#230 = EDGE_CURVE ( 'NONE', #220, #220, #219, .T. ) ;
#231 = TOROIDAL_SURFACE ( 'NONE', #49, 0.6750000000000000444, 0.5000000000000000000 ) ;
#232 = DIRECTION ( 'NONE',  ( 4.388832698676786643E-31, 1.000000000000000000, 1.224646799147353207E-16 ) ) ;
#233 = SECURITY_CLASSIFICATION_LEVEL ( 'unclassified' ) ;
#234 = COORDINATED_UNIVERSAL_TIME_OFFSET ( 1, 0, .AHEAD. ) ;
#235 = ADVANCED_FACE ( 'NONE', ( #5, #90 ), #86, .T. ) ;
#236 = PERSON_AND_ORGANIZATION ( #197, #31 ) ;
#237 = DIRECTION ( 'NONE',  ( 1.000000000000000000, 0.0000000000000000000, 0.0000000000000000000 ) ) ;
#238 = CARTESIAN_POINT ( 'NONE',  ( 8.627912962565267266E-15, -3.081835959529463934E-16, 2.471132486540523310 ) ) ;
#239 = PERSON_AND_ORGANIZATION ( #197, #31 ) ;
#240 = ADVANCED_FACE ( 'NONE', ( #64 ), #122, .F. ) ;
#241 = AXIS2_PLACEMENT_3D ( 'NONE', #120, #3, #192 ) ;
#242 = EDGE_LOOP ( 'NONE', ( #54 ) ) ;
#243 = PRODUCT_RELATED_PRODUCT_CATEGORY ( 'detail', '', ( #183 ) ) ;
ENDSEC;
END-ISO-10303-21;
