ISO-10303-21;
HEADER;
FILE_DESCRIPTION (( 'STEP AP203' ),
    '1' );
FILE_NAME ('955378.step',
    '2021-11-10T12:11:13',
    ( '' ),
    ( '' ),
    'SwSTEP 2.0',
    'SolidWorks 2019',
    '' );
FILE_SCHEMA (( 'CONFIG_CONTROL_DESIGN' ));
ENDSEC;

DATA;
#1 = AXIS2_PLACEMENT_3D ( 'NONE', #199, #85, #218 ) ;
#2 = EDGE_LOOP ( 'NONE', ( #170 ) ) ;
#3 = DIRECTION ( 'NONE',  ( -3.491481338843133355E-15, 1.224646799147353207E-16, -1.000000000000000000 ) ) ;
#4 = CONICAL_SURFACE ( 'NONE', #193, 0.3999999999999989675, 0.7853981633974694843 ) ;
#5 = VERTEX_POINT ( 'NONE', #45 ) ;
#6 = FACE_BOUND ( 'NONE', #226, .T. ) ;
#7 = ADVANCED_FACE ( 'NONE', ( #107 ), #140, .T. ) ;
#8 = APPLICATION_PROTOCOL_DEFINITION ( 'international standard', 'config_control_design', 1994, #21 ) ;
#9 = CIRCLE ( 'NONE', #69, 0.3999999999999989675 ) ;
#10 = DIRECTION ( 'NONE',  ( 0.0000000000000000000, 1.000000000000000000, 0.0000000000000000000 ) ) ;
#11 = LOCAL_TIME ( 13, 11, 13.00000000000000000, #111 ) ;
#12 = PERSON ( 'UNSPECIFIED', 'UNSPECIFIED', 'UNSPECIFIED', ('UNSPECIFIED'), ('UNSPECIFIED'), ('UNSPECIFIED') ) ;
#13 = FACE_OUTER_BOUND ( 'NONE', #175, .T. ) ;
#14 = CIRCLE ( 'NONE', #66, 0.1499999999999999944 ) ;
#15 = PERSON_AND_ORGANIZATION ( #12, #162 ) ;
#16 = PERSON_AND_ORGANIZATION_ROLE ( 'creator' ) ;
#17 = ORIENTED_EDGE ( 'NONE', *, *, #198, .T. ) ;
#18 = TOROIDAL_SURFACE ( 'NONE', #104, 0.6500000000000000222, 0.5000000000000001110 ) ;
#19 = DIRECTION ( 'NONE',  ( 0.0000000000000000000, -1.000000000000000000, 0.0000000000000000000 ) ) ;
#20 = EDGE_LOOP ( 'NONE', ( #17 ) ) ;
#21 = APPLICATION_CONTEXT ( 'configuration controlled 3d designs of mechanical parts and assemblies' ) ;
#22 = CC_DESIGN_DATE_AND_TIME_ASSIGNMENT ( #227, #174, ( #243 ) ) ;
#23 = EDGE_LOOP ( 'NONE', ( #154 ) ) ;
#24 = ADVANCED_FACE ( 'NONE', ( #120, #137 ), #59, .T. ) ;
#25 = CARTESIAN_POINT ( 'NONE',  ( 1.047444401652940007E-13, 0.3999999999999953038, 30.00000000000000000 ) ) ;
#26 = CC_DESIGN_APPROVAL ( #214, ( #243 ) ) ;
#27 = CARTESIAN_POINT ( 'NONE',  ( 1.047444401652940007E-13, -3.673940397442059178E-15, 30.00000000000000000 ) ) ;
#28 = FACE_OUTER_BOUND ( 'NONE', #134, .T. ) ;
#29 = CYLINDRICAL_SURFACE ( 'NONE', #229, 0.1499999999999999667 ) ;
#30 = LOCAL_TIME ( 13, 11, 13.00000000000000000, #239 ) ;
#31 = APPLICATION_PROTOCOL_DEFINITION ( 'international standard', 'config_control_design', 1994, #139 ) ;
#32 = AXIS2_PLACEMENT_3D ( 'NONE', #116, #195, #103 ) ;
#33 = APPROVAL_PERSON_ORGANIZATION ( #132, #74, #39 ) ;
#34 = PERSON_AND_ORGANIZATION_ROLE ( 'design_supplier' ) ;
#35 = APPROVAL_STATUS ( 'not_yet_approved' ) ;
#36 = DIRECTION ( 'NONE',  ( 4.275831445896958607E-31, 1.000000000000000000, 1.224646799147353207E-16 ) ) ;
#37 = COORDINATED_UNIVERSAL_TIME_OFFSET ( 1, 0, .AHEAD. ) ;
#38 = DIRECTION ( 'NONE',  ( 4.391289247650261546E-31, 1.000000000000000000, 1.224646799147353207E-16 ) ) ;
#39 = APPROVAL_ROLE ( '' ) ;
#40 = EDGE_LOOP ( 'NONE', ( #187 ) ) ;
#41 = AXIS2_PLACEMENT_3D ( 'NONE', #159, #153, #158 ) ;
#42 = ORIENTED_EDGE ( 'NONE', *, *, #181, .F. ) ;
#43 = APPROVAL ( #242, 'UNSPECIFIED' ) ;
#44 = MECHANICAL_CONTEXT ( 'NONE', #21, 'mechanical' ) ;
#45 = CARTESIAN_POINT ( 'NONE',  ( 3.023711536277441710E-16, 0.1499999999999999667, 0.08660254037844342112 ) ) ;
#46 = DIRECTION ( 'NONE',  ( -4.275831445896958607E-31, -1.000000000000000000, -1.224646799147353207E-16 ) ) ;
#47 = DIRECTION ( 'NONE',  ( 3.491481338843133355E-15, -1.224646799147353207E-16, 1.000000000000000000 ) ) ;
#48 = PERSON_AND_ORGANIZATION ( #12, #162 ) ;
#49 = AXIS2_PLACEMENT_3D ( 'NONE', #203, #84, #163 ) ;
#50 = CC_DESIGN_SECURITY_CLASSIFICATION ( #102, ( #221 ) ) ;
#51 = COORDINATED_UNIVERSAL_TIME_OFFSET ( 1, 0, .AHEAD. ) ;
#52 = AXIS2_PLACEMENT_3D ( 'NONE', #217, #202, #87 ) ;
#53 = SHAPE_DEFINITION_REPRESENTATION ( #235, #110 ) ;
#54 = DIRECTION ( 'NONE',  ( -3.491481338843133355E-15, 1.224646799147353207E-16, -1.000000000000000000 ) ) ;
#55 = APPROVAL_ROLE ( '' ) ;
#56 = ORIENTED_EDGE ( 'NONE', *, *, #204, .T. ) ;
#57 = CARTESIAN_POINT ( 'NONE',  ( 3.491481338843133254E-12, -1.224646799147353249E-13, 1000.000000000000000 ) ) ;
#58 = EDGE_LOOP ( 'NONE', ( #100 ) ) ;
#59 = CONICAL_SURFACE ( 'NONE', #184, 0.5999999999999979794, 0.5235987755982930425 ) ;
#60 = VERTEX_POINT ( 'NONE', #89 ) ;
#61 = PERSON_AND_ORGANIZATION ( #12, #162 ) ;
#62 = EDGE_LOOP ( 'NONE', ( #192 ) ) ;
#63 = DIRECTION ( 'NONE',  ( -4.554490559825208066E-31, -1.000000000000000000, -1.281975124255703048E-16 ) ) ;
#64 = CC_DESIGN_PERSON_AND_ORGANIZATION_ASSIGNMENT ( #15, #16, ( #221 ) ) ;
#65 = EDGE_LOOP ( 'NONE', ( #75 ) ) ;
#66 = AXIS2_PLACEMENT_3D ( 'NONE', #233, #71, #143 ) ;
#67 = ORIENTED_EDGE ( 'NONE', *, *, #142, .T. ) ;
#68 = ADVANCED_FACE ( 'NONE', ( #216 ), #182, .F. ) ;
#69 = AXIS2_PLACEMENT_3D ( 'NONE', #179, #3, #230 ) ;
#70 = DIRECTION ( 'NONE',  ( 3.491481338843133355E-15, -1.247135059052984700E-16, 1.000000000000000000 ) ) ;
#71 = DIRECTION ( 'NONE',  ( -3.491481338843133355E-15, 1.224646799147353207E-16, -1.000000000000000000 ) ) ;
#72 = FACE_OUTER_BOUND ( 'NONE', #40, .T. ) ;
#73 = APPROVAL_PERSON_ORGANIZATION ( #169, #43, #55 ) ;
#74 = APPROVAL ( #35, 'UNSPECIFIED' ) ;
#75 = ORIENTED_EDGE ( 'NONE', *, *, #80, .T. ) ;
#76 = CALENDAR_DATE ( 2021, 10, 11 ) ;
#77 = EDGE_LOOP ( 'NONE', ( #240 ) ) ;
#78 = CARTESIAN_POINT ( 'NONE',  ( 3.023711536277441217E-16, -1.060575238724901245E-17, 0.08660254037844340724 ) ) ;
#79 = CALENDAR_DATE ( 2021, 10, 11 ) ;
#80 = EDGE_CURVE ( 'NONE', #151, #151, #113, .T. ) ;
#81 = DIRECTION ( 'NONE',  ( 3.491481338843133355E-15, -1.247135059052984700E-16, 1.000000000000000000 ) ) ;
#82 = EDGE_LOOP ( 'NONE', ( #42 ) ) ;
#83 = VERTEX_POINT ( 'NONE', #106 ) ;
#84 = DIRECTION ( 'NONE',  ( 0.0000000000000000000, 0.0000000000000000000, 1.000000000000000000 ) ) ;
#85 = DIRECTION ( 'NONE',  ( 3.491481338843133355E-15, -1.224646799147353207E-16, 1.000000000000000000 ) ) ;
#86 = DIRECTION ( 'NONE',  ( 0.0000000000000000000, 1.000000000000000000, 0.0000000000000000000 ) ) ;
#87 = DIRECTION ( 'NONE',  ( 4.275831445896958607E-31, 1.000000000000000000, 1.224646799147353207E-16 ) ) ;
#88 = APPROVAL_STATUS ( 'not_yet_approved' ) ;
#89 = CARTESIAN_POINT ( 'NONE',  ( 5.539593161892444944E-15, 0.1499999999999998002, 1.586602540378443615 ) ) ;
#90 = CIRCLE ( 'NONE', #32, 0.1499999999999999944 ) ;
#91 = CARTESIAN_POINT ( 'NONE',  ( 5.539593161892444944E-15, 1.124819836996390469E-33, 1.586602540378443615 ) ) ;
#92 = ADVANCED_FACE ( 'NONE', ( #105, #141 ), #118, .T. ) ;
#93 = APPROVAL_DATE_TIME ( #223, #74 ) ;
#94 = CLOSED_SHELL ( 'NONE', ( #215, #167, #7 ) ) ;
#95 = APPROVAL_DATE_TIME ( #150, #214 ) ;
#96 = ORIENTED_EDGE ( 'NONE', *, *, #138, .T. ) ;
#97 = ORIENTED_EDGE ( 'NONE', *, *, #204, .F. ) ;
#98 = CARTESIAN_POINT ( 'NONE',  ( 1.043952920314096936E-13, 0.4999999999999954481, 29.90000000000000213 ) ) ;
#99 = CALENDAR_DATE ( 2021, 10, 11 ) ;
#100 = ORIENTED_EDGE ( 'NONE', *, *, #112, .T. ) ;
#101 = ADVANCED_FACE ( 'NONE', ( #28, #6 ), #4, .T. ) ;
#102 = SECURITY_CLASSIFICATION ( '', '', #185 ) ;
#103 = DIRECTION ( 'NONE',  ( 0.0000000000000000000, 1.000000000000000000, 0.0000000000000000000 ) ) ;
#104 = AXIS2_PLACEMENT_3D ( 'NONE', #224, #54, #38 ) ;
#105 = FACE_OUTER_BOUND ( 'NONE', #65, .T. ) ;
#106 = CARTESIAN_POINT ( 'NONE',  ( 6.412463496603219605E-15, -0.2169872981077792251, 1.836602540378441173 ) ) ;
#107 = FACE_OUTER_BOUND ( 'NONE', #62, .T. ) ;
#108 = DIRECTION ( 'NONE',  ( -3.491481338843133355E-15, 1.224646799147353207E-16, -1.000000000000000000 ) ) ;
#109 = COORDINATED_UNIVERSAL_TIME_OFFSET ( 1, 0, .AHEAD. ) ;
#110 = ADVANCED_BREP_SHAPE_REPRESENTATION ( '955378', ( #234, #165, #49 ), #156 ) ;
#111 = COORDINATED_UNIVERSAL_TIME_OFFSET ( 1, 0, .AHEAD. ) ;
#112 = EDGE_CURVE ( 'NONE', #241, #241, #14, .T. ) ;
#113 = CIRCLE ( 'NONE', #166, 0.4999999999999991673 ) ;
#114 = APPROVAL_DATE_TIME ( #207, #43 ) ;
#115 = DIRECTION ( 'NONE',  ( 3.491481338843133355E-15, -1.224646799147353207E-16, 1.000000000000000000 ) ) ;
#116 = CARTESIAN_POINT ( 'NONE',  ( 5.539593161892444944E-15, -1.943027722593520305E-16, 1.586602540378443615 ) ) ;
#117 = CC_DESIGN_PERSON_AND_ORGANIZATION_ASSIGNMENT ( #48, #205, ( #144 ) ) ;
#118 = CYLINDRICAL_SURFACE ( 'NONE', #52, 0.4999999999999978351 ) ;
#119 = AXIS2_PLACEMENT_3D ( 'NONE', #91, #47, #46 ) ;
#120 = FACE_BOUND ( 'NONE', #2, .T. ) ;
#121 =( LENGTH_UNIT ( ) NAMED_UNIT ( * ) SI_UNIT ( .MILLI., .METRE. ) );
#122 = CC_DESIGN_PERSON_AND_ORGANIZATION_ASSIGNMENT ( #61, #34, ( #221 ) ) ;
#123 = CIRCLE ( 'NONE', #41, 0.4999999999999978351 ) ;
#124 = CARTESIAN_POINT ( 'NONE',  ( 0.0000000000000000000, 0.0000000000000000000, 0.0000000000000000000 ) ) ;
#125 = CALENDAR_DATE ( 2021, 10, 11 ) ;
#126 = CARTESIAN_POINT ( 'NONE',  ( 1.047444401652940007E-13, 2.999519565323652267E-33, 30.00000000000000000 ) ) ;
#127 = PERSON_AND_ORGANIZATION_ROLE ( 'creator' ) ;
#128 = FACE_OUTER_BOUND ( 'NONE', #23, .T. ) ;
#129 = PERSON_AND_ORGANIZATION_ROLE ( 'classification_officer' ) ;
#130 = LOCAL_TIME ( 13, 11, 13.00000000000000000, #51 ) ;
#131 = CC_DESIGN_PERSON_AND_ORGANIZATION_ASSIGNMENT ( #172, #129, ( #102 ) ) ;
#132 = PERSON_AND_ORGANIZATION ( #12, #162 ) ;
#133 = FACE_OUTER_BOUND ( 'NONE', #77, .T. ) ;
#134 = EDGE_LOOP ( 'NONE', ( #212 ) ) ;
#135 = AXIS2_PLACEMENT_3D ( 'NONE', #57, #115, #63 ) ;
#136 =( NAMED_UNIT ( * ) SI_UNIT ( $, .STERADIAN. ) SOLID_ANGLE_UNIT ( ) );
#137 = FACE_OUTER_BOUND ( 'NONE', #160, .T. ) ;
#138 = EDGE_CURVE ( 'NONE', #60, #60, #90, .T. ) ;
#139 = APPLICATION_CONTEXT ( 'configuration controlled 3d designs of mechanical parts and assemblies' ) ;
#140 = PLANE ( 'NONE',  #1 ) ;
#141 = FACE_OUTER_BOUND ( 'NONE', #231, .T. ) ;
#142 = EDGE_CURVE ( 'NONE', #201, #201, #9, .T. ) ;
#143 = DIRECTION ( 'NONE',  ( 0.0000000000000000000, 1.000000000000000000, 0.0000000000000000000 ) ) ;
#144 = PRODUCT ( '955378', '955378', '', ( #44 ) ) ;
#145 = AXIS2_PLACEMENT_3D ( 'NONE', #78, #191, #173 ) ;
#146 = LOCAL_TIME ( 13, 11, 13.00000000000000000, #37 ) ;
#147 = PERSON_AND_ORGANIZATION ( #12, #162 ) ;
#148 = CIRCLE ( 'NONE', #145, 0.1499999999999999667 ) ;
#149 = APPROVAL_PERSON_ORGANIZATION ( #147, #214, #219 ) ;
#150 = DATE_AND_TIME ( #99, #130 ) ;
#151 = VERTEX_POINT ( 'NONE', #98 ) ;
#152 = PERSON_AND_ORGANIZATION ( #12, #162 ) ;
#153 = DIRECTION ( 'NONE',  ( -3.491481338843133355E-15, 1.247135059052984700E-16, -1.000000000000000000 ) ) ;
#154 = ORIENTED_EDGE ( 'NONE', *, *, #112, .F. ) ;
#155 = CARTESIAN_POINT ( 'NONE',  ( 5.539593161892444944E-15, 0.1499999999999998002, 1.586602540378443615 ) ) ;
#156 =( GEOMETRIC_REPRESENTATION_CONTEXT ( 3 ) GLOBAL_UNCERTAINTY_ASSIGNED_CONTEXT ( ( #206 ) ) GLOBAL_UNIT_ASSIGNED_CONTEXT ( ( #121, #161, #136 ) ) REPRESENTATION_CONTEXT ( 'NONE', 'WORKASPACE' ) );
#157 = DATE_AND_TIME ( #125, #146 ) ;
#158 = DIRECTION ( 'NONE',  ( 0.0000000000000000000, -1.000000000000000000, 0.0000000000000000000 ) ) ;
#159 = CARTESIAN_POINT ( 'NONE',  ( 8.123961039852353033E-15, -2.901827519014447488E-16, 2.326794919243115434 ) ) ;
#160 = EDGE_LOOP ( 'NONE', ( #56 ) ) ;
#161 =( NAMED_UNIT ( * ) PLANE_ANGLE_UNIT ( ) SI_UNIT ( $, .RADIAN. ) );
#162 = ORGANIZATION ( 'UNSPECIFIED', 'UNSPECIFIED', '' ) ;
#163 = DIRECTION ( 'NONE',  ( 1.000000000000000000, 0.0000000000000000000, 0.0000000000000000000 ) ) ;
#164 = CARTESIAN_POINT ( 'NONE',  ( 8.728703347107853899E-15, -3.117837647632468899E-16, 2.500000000000005773 ) ) ;
#165 = MANIFOLD_SOLID_BREP ( 'Corps-Déplacer/Copier1[2]', #94 ) ;
#166 = AXIS2_PLACEMENT_3D ( 'NONE', #196, #183, #86 ) ;
#167 = ADVANCED_FACE ( 'NONE', ( #13, #72 ), #29, .T. ) ;
#168 = DIRECTION ( 'NONE',  ( -3.491481338843133355E-15, 1.224646799147353207E-16, -1.000000000000000000 ) ) ;
#169 = PERSON_AND_ORGANIZATION ( #12, #162 ) ;
#170 = ORIENTED_EDGE ( 'NONE', *, *, #181, .T. ) ;
#171 = PRODUCT_RELATED_PRODUCT_CATEGORY ( 'detail', '', ( #144 ) ) ;
#172 = PERSON_AND_ORGANIZATION ( #12, #162 ) ;
#173 = DIRECTION ( 'NONE',  ( 3.209883240645393672E-31, 1.000000000000000000, 9.035018104045871927E-17 ) ) ;
#174 = DATE_TIME_ROLE ( 'creation_date' ) ;
#175 = EDGE_LOOP ( 'NONE', ( #96 ) ) ;
#176 = CARTESIAN_POINT ( 'NONE',  ( 6.412463496603219605E-15, -2.290491417651728631E-16, 1.836602540378441173 ) ) ;
#177 = AXIS2_PLACEMENT_3D ( 'NONE', #176, #81, #19 ) ;
#178 = CC_DESIGN_PERSON_AND_ORGANIZATION_ASSIGNMENT ( #152, #127, ( #243 ) ) ;
#179 = CARTESIAN_POINT ( 'NONE',  ( 1.047444401652940007E-13, -3.673940397442059178E-15, 30.00000000000000000 ) ) ;
#180 = VERTEX_POINT ( 'NONE', #197 ) ;
#181 = EDGE_CURVE ( 'NONE', #83, #83, #200, .T. ) ;
#182 = PLANE ( 'NONE',  #119 ) ;
#183 = DIRECTION ( 'NONE',  ( -3.491481338843133355E-15, 1.224646799147353207E-16, -1.000000000000000000 ) ) ;
#184 = AXIS2_PLACEMENT_3D ( 'NONE', #164, #70, #232 ) ;
#185 = SECURITY_CLASSIFICATION_LEVEL ( 'unclassified' ) ;
#186 = PLANE ( 'NONE',  #210 ) ;
#187 = ORIENTED_EDGE ( 'NONE', *, *, #198, .F. ) ;
#188 = DIRECTION ( 'NONE',  ( -3.491481338843133355E-15, 1.224646799147353207E-16, -1.000000000000000000 ) ) ;
#189 = CLOSED_SHELL ( 'NONE', ( #92, #101, #220, #24, #68, #228 ) ) ;
#190 = CC_DESIGN_APPROVAL ( #74, ( #102 ) ) ;
#191 = DIRECTION ( 'NONE',  ( -3.491481338843133355E-15, 1.224646799147353207E-16, -1.000000000000000000 ) ) ;
#192 = ORIENTED_EDGE ( 'NONE', *, *, #138, .F. ) ;
#193 = AXIS2_PLACEMENT_3D ( 'NONE', #27, #108, #10 ) ;
#194 = CC_DESIGN_APPROVAL ( #43, ( #221 ) ) ;
#195 = DIRECTION ( 'NONE',  ( -3.491481338843133355E-15, 1.224646799147353207E-16, -1.000000000000000000 ) ) ;
#196 = CARTESIAN_POINT ( 'NONE',  ( 1.043952920314096936E-13, -3.661693929450586610E-15, 29.90000000000000213 ) ) ;
#197 = CARTESIAN_POINT ( 'NONE',  ( 8.123961039852353033E-15, -0.4999999999999981681, 2.326794919243115434 ) ) ;
#198 = EDGE_CURVE ( 'NONE', #5, #5, #148, .T. ) ;
#199 = CARTESIAN_POINT ( 'NONE',  ( 5.539593161892444944E-15, 1.124819836996390469E-33, 1.586602540378443615 ) ) ;
#200 = CIRCLE ( 'NONE', #177, 0.2169872981077790031 ) ;
#201 = VERTEX_POINT ( 'NONE', #25 ) ;
#202 = DIRECTION ( 'NONE',  ( -3.491481338843133355E-15, 1.224646799147353207E-16, -1.000000000000000000 ) ) ;
#203 = CARTESIAN_POINT ( 'NONE',  ( 0.0000000000000000000, 0.0000000000000000000, 0.0000000000000000000 ) ) ;
#204 = EDGE_CURVE ( 'NONE', #180, #180, #123, .T. ) ;
#205 = PERSON_AND_ORGANIZATION_ROLE ( 'design_owner' ) ;
#206 = UNCERTAINTY_MEASURE_WITH_UNIT (LENGTH_MEASURE( 1.000000000000000082E-05 ), #121, 'distance_accuracy_value', 'NONE');
#207 = DATE_AND_TIME ( #79, #211 ) ;
#208 = DATE_TIME_ROLE ( 'classification_date' ) ;
#209 = FACE_OUTER_BOUND ( 'NONE', #82, .T. ) ;
#210 = AXIS2_PLACEMENT_3D ( 'NONE', #126, #168, #36 ) ;
#211 = LOCAL_TIME ( 13, 11, 13.00000000000000000, #109 ) ;
#212 = ORIENTED_EDGE ( 'NONE', *, *, #80, .F. ) ;
#213 = FACE_OUTER_BOUND ( 'NONE', #20, .T. ) ;
#214 = APPROVAL ( #88, 'UNSPECIFIED' ) ;
#215 = ADVANCED_FACE ( 'NONE', ( #213 ), #236, .T. ) ;
#216 = FACE_OUTER_BOUND ( 'NONE', #58, .T. ) ;
#217 = CARTESIAN_POINT ( 'NONE',  ( 0.0000000000000000000, 0.0000000000000000000, 0.0000000000000000000 ) ) ;
#218 = DIRECTION ( 'NONE',  ( -4.275831445896958607E-31, -1.000000000000000000, -1.224646799147353207E-16 ) ) ;
#219 = APPROVAL_ROLE ( '' ) ;
#220 = ADVANCED_FACE ( 'NONE', ( #133 ), #186, .F. ) ;
#221 = PRODUCT_DEFINITION_FORMATION_WITH_SPECIFIED_SOURCE ( 'ANY', '', #144, .NOT_KNOWN. ) ;
#222 = DESIGN_CONTEXT ( 'detailed design', #139, 'design' ) ;
#223 = DATE_AND_TIME ( #76, #11 ) ;
#224 = CARTESIAN_POINT ( 'NONE',  ( 5.539593161892444944E-15, -2.168404344971008868E-16, 1.586602540378443615 ) ) ;
#225 = CALENDAR_DATE ( 2021, 10, 11 ) ;
#226 = EDGE_LOOP ( 'NONE', ( #67 ) ) ;
#227 = DATE_AND_TIME ( #225, #30 ) ;
#228 = ADVANCED_FACE ( 'NONE', ( #128, #209 ), #18, .F. ) ;
#229 = AXIS2_PLACEMENT_3D ( 'NONE', #124, #188, #238 ) ;
#230 = DIRECTION ( 'NONE',  ( 0.0000000000000000000, 1.000000000000000000, 0.0000000000000000000 ) ) ;
#231 = EDGE_LOOP ( 'NONE', ( #97 ) ) ;
#232 = DIRECTION ( 'NONE',  ( 0.0000000000000000000, -1.000000000000000000, 0.0000000000000000000 ) ) ;
#233 = CARTESIAN_POINT ( 'NONE',  ( 5.539593161892444944E-15, -1.943027722593520305E-16, 1.586602540378443615 ) ) ;
#234 = MANIFOLD_SOLID_BREP ( 'Corps-Déplacer/Copier1[1]', #189 ) ;
#235 = PRODUCT_DEFINITION_SHAPE ( 'NONE', 'NONE',  #243 ) ;
#236 = CONICAL_SURFACE ( 'NONE', #135, 1732.050807568885830, 1.047197551196599852 ) ;
#237 = CC_DESIGN_DATE_AND_TIME_ASSIGNMENT ( #157, #208, ( #102 ) ) ;
#238 = DIRECTION ( 'NONE',  ( 4.275831445896958607E-31, 1.000000000000000000, 1.224646799147353207E-16 ) ) ;
#239 = COORDINATED_UNIVERSAL_TIME_OFFSET ( 1, 0, .AHEAD. ) ;
#240 = ORIENTED_EDGE ( 'NONE', *, *, #142, .F. ) ;
#241 = VERTEX_POINT ( 'NONE', #155 ) ;
#242 = APPROVAL_STATUS ( 'not_yet_approved' ) ;
#243 = PRODUCT_DEFINITION ( 'UNKNOWN', '', #221, #222 ) ;
ENDSEC;
END-ISO-10303-21;
