ISO-10303-21;
HEADER;
FILE_DESCRIPTION (( 'STEP AP203' ),
    '1' );
FILE_NAME ('955377.step',
    '2021-11-10T12:11:12',
    ( '' ),
    ( '' ),
    'SwSTEP 2.0',
    'SolidWorks 2019',
    '' );
FILE_SCHEMA (( 'CONFIG_CONTROL_DESIGN' ));
ENDSEC;

DATA;
#1 = CIRCLE ( 'NONE', #15, 0.1249999999999999722 ) ;
#2 = FACE_OUTER_BOUND ( 'NONE', #234, .T. ) ;
#3 = PRODUCT_DEFINITION_SHAPE ( 'NONE', 'NONE',  #201 ) ;
#4 = APPROVAL_PERSON_ORGANIZATION ( #93, #214, #135 ) ;
#5 = ORIENTED_EDGE ( 'NONE', *, *, #84, .F. ) ;
#6 = DATE_AND_TIME ( #131, #147 ) ;
#7 = CC_DESIGN_DATE_AND_TIME_ASSIGNMENT ( #228, #132, ( #37 ) ) ;
#8 = AXIS2_PLACEMENT_3D ( 'NONE', #82, #11, #67 ) ;
#9 = ORIENTED_EDGE ( 'NONE', *, *, #171, .T. ) ;
#10 = ADVANCED_FACE ( 'NONE', ( #89, #2 ), #199, .T. ) ;
#11 = DIRECTION ( 'NONE',  ( 3.491481338843133355E-15, -1.247135059052984700E-16, 1.000000000000000000 ) ) ;
#12 = PERSON_AND_ORGANIZATION ( #161, #76 ) ;
#13 = CARTESIAN_POINT ( 'NONE',  ( 3.743457300199587316E-15, 0.1249999999999998335, 1.072168783648702828 ) ) ;
#14 = VERTEX_POINT ( 'NONE', #224 ) ;
#15 = AXIS2_PLACEMENT_3D ( 'NONE', #25, #128, #148 ) ;
#16 = CC_DESIGN_PERSON_AND_ORGANIZATION_ASSIGNMENT ( #96, #232, ( #117 ) ) ;
#17 = FACE_OUTER_BOUND ( 'NONE', #95, .T. ) ;
#18 = CIRCLE ( 'NONE', #71, 0.1249999999999999722 ) ;
#19 = DIRECTION ( 'NONE',  ( -3.491481338843133355E-15, 1.224646799147353207E-16, -1.000000000000000000 ) ) ;
#20 = FACE_OUTER_BOUND ( 'NONE', #239, .T. ) ;
#21 = APPROVAL_ROLE ( '' ) ;
#22 = DIRECTION ( 'NONE',  ( 3.491481338843133355E-15, -1.247135059052984700E-16, 1.000000000000000000 ) ) ;
#23 = ORIENTED_EDGE ( 'NONE', *, *, #171, .F. ) ;
#24 = CLOSED_SHELL ( 'NONE', ( #151, #57, #138 ) ) ;
#25 = CARTESIAN_POINT ( 'NONE',  ( 3.743457300199587316E-15, -1.313028069041095060E-16, 1.072168783648702828 ) ) ;
#26 = ORIENTED_EDGE ( 'NONE', *, *, #182, .F. ) ;
#27 = FACE_OUTER_BOUND ( 'NONE', #218, .T. ) ;
#28 = AXIS2_PLACEMENT_3D ( 'NONE', #153, #233, #41 ) ;
#29 = EDGE_CURVE ( 'NONE', #150, #150, #110, .T. ) ;
#30 = AXIS2_PLACEMENT_3D ( 'NONE', #166, #51, #223 ) ;
#31 = APPROVAL_PERSON_ORGANIZATION ( #243, #206, #21 ) ;
#32 = DIRECTION ( 'NONE',  ( -3.491481338843133355E-15, 1.224646799147353207E-16, -1.000000000000000000 ) ) ;
#33 = DIRECTION ( 'NONE',  ( 0.0000000000000000000, 0.0000000000000000000, 1.000000000000000000 ) ) ;
#34 = APPLICATION_CONTEXT ( 'configuration controlled 3d designs of mechanical parts and assemblies' ) ;
#35 = VERTEX_POINT ( 'NONE', #54 ) ;
#36 = DATE_AND_TIME ( #111, #180 ) ;
#37 = SECURITY_CLASSIFICATION ( '', '', #75 ) ;
#38 = CARTESIAN_POINT ( 'NONE',  ( 3.743457300199587316E-15, -1.313028069041095060E-16, 1.072168783648702828 ) ) ;
#39 = ORIENTED_EDGE ( 'NONE', *, *, #178, .T. ) ;
#40 = PERSON_AND_ORGANIZATION ( #161, #76 ) ;
#41 = DIRECTION ( 'NONE',  ( 0.0000000000000000000, -1.000000000000000000, 0.0000000000000000000 ) ) ;
#42 = ORIENTED_EDGE ( 'NONE', *, *, #242, .F. ) ;
#43 = EDGE_LOOP ( 'NONE', ( #60 ) ) ;
#44 = ADVANCED_FACE ( 'NONE', ( #65, #168 ), #226, .T. ) ;
#45 = DIRECTION ( 'NONE',  ( 0.0000000000000000000, 1.000000000000000000, 0.0000000000000000000 ) ) ;
#46 = LOCAL_TIME ( 13, 11, 12.00000000000000000, #104 ) ;
#47 = PLANE ( 'NONE',  #155 ) ;
#48 = DIRECTION ( 'NONE',  ( 1.000000000000000000, 0.0000000000000000000, 0.0000000000000000000 ) ) ;
#49 = EDGE_CURVE ( 'NONE', #143, #143, #125, .T. ) ;
#50 = APPROVAL_DATE_TIME ( #221, #91 ) ;
#51 = DIRECTION ( 'NONE',  ( -3.491481338843133355E-15, 1.224646799147353207E-16, -1.000000000000000000 ) ) ;
#52 = CARTESIAN_POINT ( 'NONE',  ( 6.479010754973369044E-15, -0.4999999999999980571, 1.855662432702596787 ) ) ;
#53 = ADVANCED_FACE ( 'NONE', ( #179, #121 ), #229, .T. ) ;
#54 = CARTESIAN_POINT ( 'NONE',  ( 3.743457300199587316E-15, 0.1249999999999998335, 1.072168783648702828 ) ) ;
#55 = AXIS2_PLACEMENT_3D ( 'NONE', #202, #32, #108 ) ;
#56 = DIRECTION ( 'NONE',  ( 4.393854976578111302E-31, 1.000000000000000000, 1.224646799147353207E-16 ) ) ;
#57 = ADVANCED_FACE ( 'NONE', ( #85, #164 ), #124, .T. ) ;
#58 = DESIGN_CONTEXT ( 'detailed design', #34, 'design' ) ;
#59 = APPROVAL_DATE_TIME ( #6, #206 ) ;
#60 = ORIENTED_EDGE ( 'NONE', *, *, #49, .T. ) ;
#61 = CALENDAR_DATE ( 2021, 10, 11 ) ;
#62 = ADVANCED_FACE ( 'NONE', ( #188, #227 ), #196, .F. ) ;
#63 = EDGE_LOOP ( 'NONE', ( #39 ) ) ;
#64 = MANIFOLD_SOLID_BREP ( 'Corps-Déplacer/Copier1[1]', #238 ) ;
#65 = FACE_OUTER_BOUND ( 'NONE', #79, .T. ) ;
#66 = APPROVAL_PERSON_ORGANIZATION ( #12, #91, #165 ) ;
#67 = DIRECTION ( 'NONE',  ( 0.0000000000000000000, -1.000000000000000000, 0.0000000000000000000 ) ) ;
#68 = ADVANCED_FACE ( 'NONE', ( #17 ), #192, .F. ) ;
#69 = ORIENTED_EDGE ( 'NONE', *, *, #178, .F. ) ;
#70 = CALENDAR_DATE ( 2021, 10, 11 ) ;
#71 = AXIS2_PLACEMENT_3D ( 'NONE', #38, #113, #237 ) ;
#72 = DATE_AND_TIME ( #183, #46 ) ;
#73 =( LENGTH_UNIT ( ) NAMED_UNIT ( * ) SI_UNIT ( .MILLI., .METRE. ) );
#74 = COORDINATED_UNIVERSAL_TIME_OFFSET ( 1, 0, .AHEAD. ) ;
#75 = SECURITY_CLASSIFICATION_LEVEL ( 'unclassified' ) ;
#76 = ORGANIZATION ( 'UNSPECIFIED', 'UNSPECIFIED', '' ) ;
#77 = PERSON_AND_ORGANIZATION_ROLE ( 'classification_officer' ) ;
#78 = DIRECTION ( 'NONE',  ( -3.491481338843133355E-15, 1.224646799147353207E-16, -1.000000000000000000 ) ) ;
#79 = EDGE_LOOP ( 'NONE', ( #216 ) ) ;
#80 = CONICAL_SURFACE ( 'NONE', #116, 1732.050807568886512, 1.047197551196600074 ) ;
#81 = ORIENTED_EDGE ( 'NONE', *, *, #242, .T. ) ;
#82 = CARTESIAN_POINT ( 'NONE',  ( 7.083753062228867543E-15, -2.530271806208979296E-16, 2.028867513459486904 ) ) ;
#83 = APPLICATION_PROTOCOL_DEFINITION ( 'international standard', 'config_control_design', 1994, #133 ) ;
#84 = EDGE_CURVE ( 'NONE', #35, #35, #18, .T. ) ;
#85 = FACE_OUTER_BOUND ( 'NONE', #163, .T. ) ;
#86 = APPROVAL_STATUS ( 'not_yet_approved' ) ;
#87 = CARTESIAN_POINT ( 'NONE',  ( 1.043952920314096936E-13, -3.661693929450586610E-15, 29.90000000000000213 ) ) ;
#88 = CARTESIAN_POINT ( 'NONE',  ( 2.519759613564534184E-16, 0.1250000000000000000, 0.07216878364870284168 ) ) ;
#89 = FACE_OUTER_BOUND ( 'NONE', #106, .T. ) ;
#90 = VERTEX_POINT ( 'NONE', #52 ) ;
#91 = APPROVAL ( #86, 'UNSPECIFIED' ) ;
#92 = CC_DESIGN_SECURITY_CLASSIFICATION ( #37, ( #117 ) ) ;
#93 = PERSON_AND_ORGANIZATION ( #161, #76 ) ;
#94 = DIRECTION ( 'NONE',  ( 3.491481338843133355E-15, -1.224646799147353207E-16, 1.000000000000000000 ) ) ;
#95 = EDGE_LOOP ( 'NONE', ( #118 ) ) ;
#96 = PERSON_AND_ORGANIZATION ( #161, #76 ) ;
#97 = CC_DESIGN_APPROVAL ( #91, ( #201 ) ) ;
#98 = DIRECTION ( 'NONE',  ( 0.0000000000000000000, -1.000000000000000000, 0.0000000000000000000 ) ) ;
#99 = EDGE_LOOP ( 'NONE', ( #5 ) ) ;
#100 = CARTESIAN_POINT ( 'NONE',  ( 4.616327634910361188E-15, -1.648923044073734784E-16, 1.322168783648700163 ) ) ;
#101 = EDGE_LOOP ( 'NONE', ( #69 ) ) ;
#102 = DIRECTION ( 'NONE',  ( 0.0000000000000000000, 1.000000000000000000, 0.0000000000000000000 ) ) ;
#103 = PERSON_AND_ORGANIZATION_ROLE ( 'design_owner' ) ;
#104 = COORDINATED_UNIVERSAL_TIME_OFFSET ( 1, 0, .AHEAD. ) ;
#105 = CC_DESIGN_PERSON_AND_ORGANIZATION_ASSIGNMENT ( #123, #103, ( #130 ) ) ;
#106 = EDGE_LOOP ( 'NONE', ( #176 ) ) ;
#107 = CARTESIAN_POINT ( 'NONE',  ( 1.043952920314096936E-13, 0.4999999999999954481, 29.90000000000000213 ) ) ;
#108 = DIRECTION ( 'NONE',  ( 4.275831445896958607E-31, 1.000000000000000000, 1.224646799147353207E-16 ) ) ;
#109 = ADVANCED_FACE ( 'NONE', ( #27 ), #173, .F. ) ;
#110 = CIRCLE ( 'NONE', #162, 0.4999999999999991673 ) ;
#111 = CALENDAR_DATE ( 2021, 10, 11 ) ;
#112 = PRODUCT_RELATED_PRODUCT_CATEGORY ( 'detail', '', ( #130 ) ) ;
#113 = DIRECTION ( 'NONE',  ( -3.491481338843133355E-15, 1.224646799147353207E-16, -1.000000000000000000 ) ) ;
#114 = EDGE_LOOP ( 'NONE', ( #236 ) ) ;
#115 = ADVANCED_BREP_SHAPE_REPRESENTATION ( '955377', ( #64, #225, #219 ), #185 ) ;
#116 = AXIS2_PLACEMENT_3D ( 'NONE', #215, #195, #235 ) ;
#117 = PRODUCT_DEFINITION_FORMATION_WITH_SPECIFIED_SOURCE ( 'ANY', '', #130, .NOT_KNOWN. ) ;
#118 = ORIENTED_EDGE ( 'NONE', *, *, #84, .T. ) ;
#119 = AXIS2_PLACEMENT_3D ( 'NONE', #175, #78, #197 ) ;
#120 = CARTESIAN_POINT ( 'NONE',  ( 1.047444401652940007E-13, -3.673940397442059178E-15, 30.00000000000000000 ) ) ;
#121 = FACE_OUTER_BOUND ( 'NONE', #114, .T. ) ;
#122 = CARTESIAN_POINT ( 'NONE',  ( 3.743457300199587316E-15, 9.373498641636587812E-34, 1.072168783648702828 ) ) ;
#123 = PERSON_AND_ORGANIZATION ( #161, #76 ) ;
#124 = CYLINDRICAL_SURFACE ( 'NONE', #55, 0.1250000000000000000 ) ;
#125 = CIRCLE ( 'NONE', #137, 0.3999999999999989675 ) ;
#126 = CC_DESIGN_PERSON_AND_ORGANIZATION_ASSIGNMENT ( #210, #77, ( #37 ) ) ;
#127 = PERSON_AND_ORGANIZATION ( #161, #76 ) ;
#128 = DIRECTION ( 'NONE',  ( -3.491481338843133355E-15, 1.224646799147353207E-16, -1.000000000000000000 ) ) ;
#129 = DIRECTION ( 'NONE',  ( 3.491481338843133355E-15, -1.224646799147353207E-16, 1.000000000000000000 ) ) ;
#130 = PRODUCT ( '955377', '955377', '', ( #208 ) ) ;
#131 = CALENDAR_DATE ( 2021, 10, 11 ) ;
#132 = DATE_TIME_ROLE ( 'classification_date' ) ;
#133 = APPLICATION_CONTEXT ( 'configuration controlled 3d designs of mechanical parts and assemblies' ) ;
#134 = DIRECTION ( 'NONE',  ( 4.275831445896958607E-31, 1.000000000000000000, 1.224646799147353207E-16 ) ) ;
#135 = APPROVAL_ROLE ( '' ) ;
#136 = EDGE_LOOP ( 'NONE', ( #23 ) ) ;
#137 = AXIS2_PLACEMENT_3D ( 'NONE', #120, #159, #102 ) ;
#138 = ADVANCED_FACE ( 'NONE', ( #20 ), #47, .T. ) ;
#139 = EDGE_LOOP ( 'NONE', ( #9 ) ) ;
#140 = DIRECTION ( 'NONE',  ( -3.491481338843133355E-15, 1.224646799147353207E-16, -1.000000000000000000 ) ) ;
#141 = AXIS2_PLACEMENT_3D ( 'NONE', #160, #194, #134 ) ;
#142 = CC_DESIGN_APPROVAL ( #214, ( #37 ) ) ;
#143 = VERTEX_POINT ( 'NONE', #220 ) ;
#144 = VERTEX_POINT ( 'NONE', #88 ) ;
#145 = CARTESIAN_POINT ( 'NONE',  ( 1.047444401652940007E-13, -3.673940397442059178E-15, 30.00000000000000000 ) ) ;
#146 = AXIS2_PLACEMENT_3D ( 'NONE', #149, #129, #207 ) ;
#147 = LOCAL_TIME ( 13, 11, 12.00000000000000000, #187 ) ;
#148 = DIRECTION ( 'NONE',  ( 0.0000000000000000000, 1.000000000000000000, 0.0000000000000000000 ) ) ;
#149 = CARTESIAN_POINT ( 'NONE',  ( 3.743457300199587316E-15, 9.373498641636587812E-34, 1.072168783648702828 ) ) ;
#150 = VERTEX_POINT ( 'NONE', #107 ) ;
#151 = ADVANCED_FACE ( 'NONE', ( #231 ), #80, .T. ) ;
#152 = DIRECTION ( 'NONE',  ( -4.275831445896958607E-31, -1.000000000000000000, -1.224646799147353207E-16 ) ) ;
#153 = CARTESIAN_POINT ( 'NONE',  ( 6.479010754973369044E-15, -2.314261677590958378E-16, 1.855662432702596787 ) ) ;
#154 = ORIENTED_EDGE ( 'NONE', *, *, #49, .F. ) ;
#155 = AXIS2_PLACEMENT_3D ( 'NONE', #122, #94, #152 ) ;
#156 = AXIS2_PLACEMENT_3D ( 'NONE', #170, #19, #56 ) ;
#157 = LOCAL_TIME ( 13, 11, 12.00000000000000000, #172 ) ;
#158 = CC_DESIGN_PERSON_AND_ORGANIZATION_ASSIGNMENT ( #40, #193, ( #117 ) ) ;
#159 = DIRECTION ( 'NONE',  ( -3.491481338843133355E-15, 1.224646799147353207E-16, -1.000000000000000000 ) ) ;
#160 = CARTESIAN_POINT ( 'NONE',  ( 1.047444401652940007E-13, 2.999519565323652267E-33, 30.00000000000000000 ) ) ;
#161 = PERSON ( 'UNSPECIFIED', 'UNSPECIFIED', 'UNSPECIFIED', ('UNSPECIFIED'), ('UNSPECIFIED'), ('UNSPECIFIED') ) ;
#162 = AXIS2_PLACEMENT_3D ( 'NONE', #87, #241, #200 ) ;
#163 = EDGE_LOOP ( 'NONE', ( #81 ) ) ;
#164 = FACE_OUTER_BOUND ( 'NONE', #101, .T. ) ;
#165 = APPROVAL_ROLE ( '' ) ;
#166 = CARTESIAN_POINT ( 'NONE',  ( 0.0000000000000000000, 0.0000000000000000000, 0.0000000000000000000 ) ) ;
#167 = DATE_TIME_ROLE ( 'creation_date' ) ;
#168 = FACE_BOUND ( 'NONE', #43, .T. ) ;
#169 = VERTEX_POINT ( 'NONE', #13 ) ;
#170 = CARTESIAN_POINT ( 'NONE',  ( 3.743457300199587316E-15, -1.084202172485504434E-16, 1.072168783648702828 ) ) ;
#171 = EDGE_CURVE ( 'NONE', #14, #14, #189, .T. ) ;
#172 = COORDINATED_UNIVERSAL_TIME_OFFSET ( 1, 0, .AHEAD. ) ;
#173 = PLANE ( 'NONE',  #141 ) ;
#174 = CIRCLE ( 'NONE', #119, 0.1250000000000000000 ) ;
#175 = CARTESIAN_POINT ( 'NONE',  ( 2.519759613564533690E-16, -8.838126989374177554E-18, 0.07216878364870282780 ) ) ;
#176 = ORIENTED_EDGE ( 'NONE', *, *, #29, .T. ) ;
#177 = AXIS2_PLACEMENT_3D ( 'NONE', #145, #140, #45 ) ;
#178 = EDGE_CURVE ( 'NONE', #144, #144, #174, .T. ) ;
#179 = FACE_BOUND ( 'NONE', #139, .T. ) ;
#180 = LOCAL_TIME ( 13, 11, 12.00000000000000000, #74 ) ;
#181 = APPLICATION_PROTOCOL_DEFINITION ( 'international standard', 'config_control_design', 1994, #34 ) ;
#182 = EDGE_CURVE ( 'NONE', #90, #90, #211, .T. ) ;
#183 = CALENDAR_DATE ( 2021, 10, 11 ) ;
#184 =( NAMED_UNIT ( * ) SI_UNIT ( $, .STERADIAN. ) SOLID_ANGLE_UNIT ( ) );
#185 =( GEOMETRIC_REPRESENTATION_CONTEXT ( 3 ) GLOBAL_UNCERTAINTY_ASSIGNED_CONTEXT ( ( #191 ) ) GLOBAL_UNIT_ASSIGNED_CONTEXT ( ( #73, #205, #184 ) ) REPRESENTATION_CONTEXT ( 'NONE', 'WORKASPACE' ) );
#186 = CARTESIAN_POINT ( 'NONE',  ( 0.0000000000000000000, 0.0000000000000000000, 0.0000000000000000000 ) ) ;
#187 = COORDINATED_UNIVERSAL_TIME_OFFSET ( 1, 0, .AHEAD. ) ;
#188 = FACE_OUTER_BOUND ( 'NONE', #99, .T. ) ;
#189 = CIRCLE ( 'NONE', #222, 0.1919872981077792029 ) ;
#190 = APPROVAL_DATE_TIME ( #36, #214 ) ;
#191 = UNCERTAINTY_MEASURE_WITH_UNIT (LENGTH_MEASURE( 1.000000000000000082E-05 ), #73, 'distance_accuracy_value', 'NONE');
#192 = PLANE ( 'NONE',  #146 ) ;
#193 = PERSON_AND_ORGANIZATION_ROLE ( 'design_supplier' ) ;
#194 = DIRECTION ( 'NONE',  ( -3.491481338843133355E-15, 1.224646799147353207E-16, -1.000000000000000000 ) ) ;
#195 = DIRECTION ( 'NONE',  ( 3.491481338843133355E-15, -1.224646799147353207E-16, 1.000000000000000000 ) ) ;
#196 = TOROIDAL_SURFACE ( 'NONE', #156, 0.6250000000000000000, 0.5000000000000000000 ) ;
#197 = DIRECTION ( 'NONE',  ( 3.851859888774471706E-31, 1.000000000000000000, 1.084202172485504434E-16 ) ) ;
#198 = CC_DESIGN_DATE_AND_TIME_ASSIGNMENT ( #72, #167, ( #201 ) ) ;
#199 = CYLINDRICAL_SURFACE ( 'NONE', #30, 0.4999999999999978351 ) ;
#200 = DIRECTION ( 'NONE',  ( 0.0000000000000000000, 1.000000000000000000, 0.0000000000000000000 ) ) ;
#201 = PRODUCT_DEFINITION ( 'UNKNOWN', '', #117, #58 ) ;
#202 = CARTESIAN_POINT ( 'NONE',  ( 0.0000000000000000000, 0.0000000000000000000, 0.0000000000000000000 ) ) ;
#203 = CC_DESIGN_APPROVAL ( #206, ( #117 ) ) ;
#204 = PERSON_AND_ORGANIZATION_ROLE ( 'creator' ) ;
#205 =( NAMED_UNIT ( * ) PLANE_ANGLE_UNIT ( ) SI_UNIT ( $, .RADIAN. ) );
#206 = APPROVAL ( #230, 'UNSPECIFIED' ) ;
#207 = DIRECTION ( 'NONE',  ( -4.275831445896958607E-31, -1.000000000000000000, -1.224646799147353207E-16 ) ) ;
#208 = MECHANICAL_CONTEXT ( 'NONE', #133, 'mechanical' ) ;
#209 = LOCAL_TIME ( 13, 11, 12.00000000000000000, #240 ) ;
#210 = PERSON_AND_ORGANIZATION ( #161, #76 ) ;
#211 = CIRCLE ( 'NONE', #28, 0.4999999999999978351 ) ;
#212 = APPROVAL_STATUS ( 'not_yet_approved' ) ;
#213 = SHAPE_DEFINITION_REPRESENTATION ( #3, #115 ) ;
#214 = APPROVAL ( #212, 'UNSPECIFIED' ) ;
#215 = CARTESIAN_POINT ( 'NONE',  ( 3.491481338843133254E-12, -1.224646799147353249E-13, 1000.000000000000000 ) ) ;
#216 = ORIENTED_EDGE ( 'NONE', *, *, #29, .F. ) ;
#217 = CC_DESIGN_PERSON_AND_ORGANIZATION_ASSIGNMENT ( #127, #204, ( #201 ) ) ;
#218 = EDGE_LOOP ( 'NONE', ( #154 ) ) ;
#219 = AXIS2_PLACEMENT_3D ( 'NONE', #186, #33, #48 ) ;
#220 = CARTESIAN_POINT ( 'NONE',  ( 1.047444401652940007E-13, 0.3999999999999953038, 30.00000000000000000 ) ) ;
#221 = DATE_AND_TIME ( #70, #209 ) ;
#222 = AXIS2_PLACEMENT_3D ( 'NONE', #100, #22, #98 ) ;
#223 = DIRECTION ( 'NONE',  ( 4.275831445896958607E-31, 1.000000000000000000, 1.224646799147353207E-16 ) ) ;
#224 = CARTESIAN_POINT ( 'NONE',  ( 4.616327634910361188E-15, -0.1919872981077793694, 1.322168783648700163 ) ) ;
#225 = MANIFOLD_SOLID_BREP ( 'Corps-Déplacer/Copier1[2]', #24 ) ;
#226 = CONICAL_SURFACE ( 'NONE', #177, 0.3999999999999989675, 0.7853981633974694843 ) ;
#227 = FACE_OUTER_BOUND ( 'NONE', #136, .T. ) ;
#228 = DATE_AND_TIME ( #61, #157 ) ;
#229 = CONICAL_SURFACE ( 'NONE', #8, 0.5999999999999978684, 0.5235987755982929315 ) ;
#230 = APPROVAL_STATUS ( 'not_yet_approved' ) ;
#231 = FACE_OUTER_BOUND ( 'NONE', #63, .T. ) ;
#232 = PERSON_AND_ORGANIZATION_ROLE ( 'creator' ) ;
#233 = DIRECTION ( 'NONE',  ( -3.491481338843133355E-15, 1.247135059052984700E-16, -1.000000000000000000 ) ) ;
#234 = EDGE_LOOP ( 'NONE', ( #26 ) ) ;
#235 = DIRECTION ( 'NONE',  ( -4.554490559825206315E-31, -1.000000000000000000, -1.281975124255702555E-16 ) ) ;
#236 = ORIENTED_EDGE ( 'NONE', *, *, #182, .T. ) ;
#237 = DIRECTION ( 'NONE',  ( 0.0000000000000000000, 1.000000000000000000, 0.0000000000000000000 ) ) ;
#238 = CLOSED_SHELL ( 'NONE', ( #10, #44, #109, #53, #68, #62 ) ) ;
#239 = EDGE_LOOP ( 'NONE', ( #42 ) ) ;
#240 = COORDINATED_UNIVERSAL_TIME_OFFSET ( 1, 0, .AHEAD. ) ;
#241 = DIRECTION ( 'NONE',  ( -3.491481338843133355E-15, 1.224646799147353207E-16, -1.000000000000000000 ) ) ;
#242 = EDGE_CURVE ( 'NONE', #169, #169, #1, .T. ) ;
#243 = PERSON_AND_ORGANIZATION ( #161, #76 ) ;
ENDSEC;
END-ISO-10303-21;
