ISO-10303-21;
HEADER;
FILE_DESCRIPTION (( 'STEP AP203' ),
    '1' );
FILE_NAME ('355375.step',
    '2021-11-10T12:11:11',
    ( '' ),
    ( '' ),
    'SwSTEP 2.0',
    'SolidWorks 2019',
    '' );
FILE_SCHEMA (( 'CONFIG_CONTROL_DESIGN' ));
ENDSEC;

DATA;
#1 = PRODUCT_RELATED_PRODUCT_CATEGORY ( 'detail', '', ( #10 ) ) ;
#2 = ORIENTED_EDGE ( 'NONE', *, *, #172, .F. ) ;
#3 = LOCAL_TIME ( 13, 11, 11.00000000000000000, #185 ) ;
#4 = ADVANCED_FACE ( 'NONE', ( #189 ), #57, .F. ) ;
#5 = ORIENTED_EDGE ( 'NONE', *, *, #23, .F. ) ;
#6 = CARTESIAN_POINT ( 'NONE',  ( 3.693062107928297155E-15, -1.295351815062347034E-16, 1.057735026918962484 ) ) ;
#7 = EDGE_LOOP ( 'NONE', ( #157 ) ) ;
#8 = PERSON_AND_ORGANIZATION_ROLE ( 'classification_officer' ) ;
#9 = AXIS2_PLACEMENT_3D ( 'NONE', #39, #191, #17 ) ;
#10 = PRODUCT ( '355375', '355375', '', ( #72 ) ) ;
#11 = ORIENTED_EDGE ( 'NONE', *, *, #225, .F. ) ;
#12 = CARTESIAN_POINT ( 'NONE',  ( 1.047444401652940007E-13, -3.673940397442059178E-15, 30.00000000000000000 ) ) ;
#13 = APPROVAL_STATUS ( 'not_yet_approved' ) ;
#14 = FACE_OUTER_BOUND ( 'NONE', #221, .T. ) ;
#15 = PERSON_AND_ORGANIZATION ( #67, #83 ) ;
#16 = DIRECTION ( 'NONE',  ( 0.0000000000000000000, -1.000000000000000000, 0.0000000000000000000 ) ) ;
#17 = DIRECTION ( 'NONE',  ( 4.396537329548138117E-31, 1.000000000000000000, 1.224646799147353207E-16 ) ) ;
#18 = CIRCLE ( 'NONE', #61, 0.4999999999999973910 ) ;
#19 = APPROVAL_ROLE ( '' ) ;
#20 = ADVANCED_FACE ( 'NONE', ( #14, #163 ), #186, .T. ) ;
#21 = AXIS2_PLACEMENT_3D ( 'NONE', #126, #147, #112 ) ;
#22 = AXIS2_PLACEMENT_3D ( 'NONE', #150, #180, #209 ) ;
#23 = EDGE_CURVE ( 'NONE', #226, #226, #80, .T. ) ;
#24 = CONICAL_SURFACE ( 'NONE', #160, 1732.050807568885830, 1.047197551196599852 ) ;
#25 = ORIENTED_EDGE ( 'NONE', *, *, #225, .T. ) ;
#26 = DESIGN_CONTEXT ( 'detailed design', #233, 'design' ) ;
#27 = CC_DESIGN_APPROVAL ( #212, ( #62 ) ) ;
#28 = FACE_OUTER_BOUND ( 'NONE', #153, .T. ) ;
#29 = DIRECTION ( 'NONE',  ( -3.491481338843133355E-15, 1.224646799147353207E-16, -1.000000000000000000 ) ) ;
#30 =( NAMED_UNIT ( * ) SI_UNIT ( $, .STERADIAN. ) SOLID_ANGLE_UNIT ( ) );
#31 = DIRECTION ( 'NONE',  ( 0.0000000000000000000, 1.000000000000000000, 0.0000000000000000000 ) ) ;
#32 = APPROVAL_DATE_TIME ( #128, #212 ) ;
#33 = CONICAL_SURFACE ( 'NONE', #81, 0.3999999999999989675, 0.7853981633974694843 ) ;
#34 = DIRECTION ( 'NONE',  ( -3.491481338843133355E-15, 1.224646799147353207E-16, -1.000000000000000000 ) ) ;
#35 = APPROVAL_PERSON_ORGANIZATION ( #119, #212, #19 ) ;
#36 = APPROVAL_ROLE ( '' ) ;
#37 = FACE_OUTER_BOUND ( 'NONE', #214, .T. ) ;
#38 = SECURITY_CLASSIFICATION_LEVEL ( 'unclassified' ) ;
#39 = CARTESIAN_POINT ( 'NONE',  ( 3.693062107928297155E-15, -1.084202172485504434E-16, 1.057735026918962484 ) ) ;
#40 = DATE_AND_TIME ( #188, #135 ) ;
#41 = AXIS2_PLACEMENT_3D ( 'NONE', #199, #129, #51 ) ;
#42 = CC_DESIGN_PERSON_AND_ORGANIZATION_ASSIGNMENT ( #200, #215, ( #105 ) ) ;
#43 = ADVANCED_FACE ( 'NONE', ( #231, #167 ), #102, .T. ) ;
#44 = AXIS2_PLACEMENT_3D ( 'NONE', #93, #178, #234 ) ;
#45 = EDGE_LOOP ( 'NONE', ( #143 ) ) ;
#46 = CLOSED_SHELL ( 'NONE', ( #86, #194, #4, #43, #101, #182 ) ) ;
#47 = SECURITY_CLASSIFICATION ( '', '', #38 ) ;
#48 = EDGE_LOOP ( 'NONE', ( #25 ) ) ;
#49 = CARTESIAN_POINT ( 'NONE',  ( 3.693062107928297155E-15, -1.295351815062347034E-16, 1.057735026918962484 ) ) ;
#50 = VERTEX_POINT ( 'NONE', #95 ) ;
#51 = DIRECTION ( 'NONE',  ( 4.814824860968092260E-31, 1.000000000000000000, 1.355252715606881282E-16 ) ) ;
#52 = DATE_AND_TIME ( #75, #3 ) ;
#53 = TOROIDAL_SURFACE ( 'NONE', #9, 0.5999999999999999778, 0.4999999999999995559 ) ;
#54 = DIRECTION ( 'NONE',  ( 3.491481338843133355E-15, -1.247135059052984700E-16, 1.000000000000000000 ) ) ;
#55 = CARTESIAN_POINT ( 'NONE',  ( 1.047444401652940007E-13, -3.673940397442059178E-15, 30.00000000000000000 ) ) ;
#56 = APPROVAL_DATE_TIME ( #149, #96 ) ;
#57 = PLANE ( 'NONE',  #148 ) ;
#58 = VERTEX_POINT ( 'NONE', #132 ) ;
#59 = PERSON_AND_ORGANIZATION ( #67, #83 ) ;
#60 = CARTESIAN_POINT ( 'NONE',  ( 6.579801139515944633E-15, -0.4999999999999976130, 1.884529946162076364 ) ) ;
#61 = AXIS2_PLACEMENT_3D ( 'NONE', #159, #70, #216 ) ;
#62 = PRODUCT_DEFINITION ( 'UNKNOWN', '', #105, #26 ) ;
#63 = AXIS2_PLACEMENT_3D ( 'NONE', #133, #77, #74 ) ;
#64 = CC_DESIGN_APPROVAL ( #82, ( #105 ) ) ;
#65 = EDGE_LOOP ( 'NONE', ( #173 ) ) ;
#66 = CC_DESIGN_PERSON_AND_ORGANIZATION_ASSIGNMENT ( #59, #8, ( #47 ) ) ;
#67 = PERSON ( 'UNSPECIFIED', 'UNSPECIFIED', 'UNSPECIFIED', ('UNSPECIFIED'), ('UNSPECIFIED'), ('UNSPECIFIED') ) ;
#68 = CARTESIAN_POINT ( 'NONE',  ( 1.043952920314096936E-13, -3.661693929450586610E-15, 29.90000000000000213 ) ) ;
#69 = CC_DESIGN_APPROVAL ( #96, ( #47 ) ) ;
#70 = DIRECTION ( 'NONE',  ( -3.491481338843133355E-15, 1.247135059052984700E-16, -1.000000000000000000 ) ) ;
#71 = CC_DESIGN_PERSON_AND_ORGANIZATION_ASSIGNMENT ( #114, #144, ( #10 ) ) ;
#72 = MECHANICAL_CONTEXT ( 'NONE', #121, 'mechanical' ) ;
#73 = PERSON_AND_ORGANIZATION ( #67, #83 ) ;
#74 = DIRECTION ( 'NONE',  ( 4.275831445896958607E-31, 1.000000000000000000, 1.224646799147353207E-16 ) ) ;
#75 = CALENDAR_DATE ( 2021, 10, 11 ) ;
#76 = UNCERTAINTY_MEASURE_WITH_UNIT (LENGTH_MEASURE( 1.000000000000000082E-05 ), #117, 'distance_accuracy_value', 'NONE');
#77 = DIRECTION ( 'NONE',  ( -3.491481338843133355E-15, 1.224646799147353207E-16, -1.000000000000000000 ) ) ;
#78 = DIRECTION ( 'NONE',  ( 0.0000000000000000000, 1.000000000000000000, 0.0000000000000000000 ) ) ;
#79 = CARTESIAN_POINT ( 'NONE',  ( 3.693062107928297155E-15, 0.09999999999999982514, 1.057735026918962484 ) ) ;
#80 = CIRCLE ( 'NONE', #229, 0.1669872981077800134 ) ;
#81 = AXIS2_PLACEMENT_3D ( 'NONE', #55, #223, #151 ) ;
#82 = APPROVAL ( #204, 'UNSPECIFIED' ) ;
#83 = ORGANIZATION ( 'UNSPECIFIED', 'UNSPECIFIED', '' ) ;
#84 = DIRECTION ( 'NONE',  ( 3.491481338843133355E-15, -1.224646799147353207E-16, 1.000000000000000000 ) ) ;
#85 = CARTESIAN_POINT ( 'NONE',  ( 1.047444401652940007E-13, 2.999519565323652267E-33, 30.00000000000000000 ) ) ;
#86 = ADVANCED_FACE ( 'NONE', ( #28, #127 ), #131, .T. ) ;
#87 = APPLICATION_PROTOCOL_DEFINITION ( 'international standard', 'config_control_design', 1994, #121 ) ;
#88 = CIRCLE ( 'NONE', #228, 0.09999999999999996392 ) ;
#89 = FACE_OUTER_BOUND ( 'NONE', #124, .T. ) ;
#90 = EDGE_LOOP ( 'NONE', ( #103 ) ) ;
#91 = CARTESIAN_POINT ( 'NONE',  ( 4.565932442639068661E-15, -0.1669872981077801799, 1.307735026918959154 ) ) ;
#92 = PERSON_AND_ORGANIZATION ( #67, #83 ) ;
#93 = CARTESIAN_POINT ( 'NONE',  ( 0.0000000000000000000, 0.0000000000000000000, 0.0000000000000000000 ) ) ;
#94 = DIRECTION ( 'NONE',  ( 0.0000000000000000000, 1.000000000000000000, 0.0000000000000000000 ) ) ;
#95 = CARTESIAN_POINT ( 'NONE',  ( 1.043952920314096936E-13, 0.4999999999999954481, 29.90000000000000213 ) ) ;
#96 = APPROVAL ( #13, 'UNSPECIFIED' ) ;
#97 = PERSON_AND_ORGANIZATION_ROLE ( 'creator' ) ;
#98 = EDGE_LOOP ( 'NONE', ( #237 ) ) ;
#99 = COORDINATED_UNIVERSAL_TIME_OFFSET ( 1, 0, .AHEAD. ) ;
#100 = ADVANCED_FACE ( 'NONE', ( #205 ), #106, .T. ) ;
#101 = ADVANCED_FACE ( 'NONE', ( #37 ), #219, .F. ) ;
#102 = CONICAL_SURFACE ( 'NONE', #134, 0.5999999999999974243, 0.5235987755982925984 ) ;
#103 = ORIENTED_EDGE ( 'NONE', *, *, #156, .F. ) ;
#104 = COORDINATED_UNIVERSAL_TIME_OFFSET ( 1, 0, .AHEAD. ) ;
#105 = PRODUCT_DEFINITION_FORMATION_WITH_SPECIFIED_SOURCE ( 'ANY', '', #10, .NOT_KNOWN. ) ;
#106 = PLANE ( 'NONE',  #243 ) ;
#107 = CARTESIAN_POINT ( 'NONE',  ( 7.184543446771446287E-15, -2.566273494311980810E-16, 2.057735026918966703 ) ) ;
#108 = EDGE_LOOP ( 'NONE', ( #152 ) ) ;
#109 = EDGE_LOOP ( 'NONE', ( #5 ) ) ;
#110 = PERSON_AND_ORGANIZATION ( #67, #83 ) ;
#111 = COORDINATED_UNIVERSAL_TIME_OFFSET ( 1, 0, .AHEAD. ) ;
#112 = DIRECTION ( 'NONE',  ( -4.275831445896958607E-31, -1.000000000000000000, -1.224646799147353207E-16 ) ) ;
#113 = MANIFOLD_SOLID_BREP ( 'Corps-Déplacer/Copier1[1]', #46 ) ;
#114 = PERSON_AND_ORGANIZATION ( #67, #83 ) ;
#115 = EDGE_LOOP ( 'NONE', ( #11 ) ) ;
#116 = CC_DESIGN_PERSON_AND_ORGANIZATION_ASSIGNMENT ( #73, #97, ( #105 ) ) ;
#117 =( LENGTH_UNIT ( ) NAMED_UNIT ( * ) SI_UNIT ( .MILLI., .METRE. ) );
#118 = FACE_OUTER_BOUND ( 'NONE', #142, .T. ) ;
#119 = PERSON_AND_ORGANIZATION ( #67, #83 ) ;
#120 = CALENDAR_DATE ( 2021, 10, 11 ) ;
#121 = APPLICATION_CONTEXT ( 'configuration controlled 3d designs of mechanical parts and assemblies' ) ;
#122 = EDGE_CURVE ( 'NONE', #58, #58, #141, .T. ) ;
#123 = EDGE_CURVE ( 'NONE', #50, #50, #232, .T. ) ;
#124 = EDGE_LOOP ( 'NONE', ( #2 ) ) ;
#125 = AXIS2_PLACEMENT_3D ( 'NONE', #6, #241, #78 ) ;
#126 = CARTESIAN_POINT ( 'NONE',  ( 3.693062107928297155E-15, 7.498798913309266657E-34, 1.057735026918962484 ) ) ;
#127 = FACE_OUTER_BOUND ( 'NONE', #65, .T. ) ;
#128 = DATE_AND_TIME ( #171, #222 ) ;
#129 = DIRECTION ( 'NONE',  ( -3.491481338843133355E-15, 1.224646799147353207E-16, -1.000000000000000000 ) ) ;
#130 = DATE_TIME_ROLE ( 'creation_date' ) ;
#131 = CYLINDRICAL_SURFACE ( 'NONE', #44, 0.4999999999999973910 ) ;
#132 = CARTESIAN_POINT ( 'NONE',  ( 2.015807690851627643E-16, 0.09999999999999993616, 0.05773502691896228306 ) ) ;
#133 = CARTESIAN_POINT ( 'NONE',  ( 0.0000000000000000000, 0.0000000000000000000, 0.0000000000000000000 ) ) ;
#134 = AXIS2_PLACEMENT_3D ( 'NONE', #107, #54, #16 ) ;
#135 = LOCAL_TIME ( 13, 11, 11.00000000000000000, #158 ) ;
#136 = PRODUCT_DEFINITION_SHAPE ( 'NONE', 'NONE',  #62 ) ;
#137 = CC_DESIGN_DATE_AND_TIME_ASSIGNMENT ( #40, #210, ( #47 ) ) ;
#138 = AXIS2_PLACEMENT_3D ( 'NONE', #12, #146, #242 ) ;
#139 = DIRECTION ( 'NONE',  ( 0.0000000000000000000, -1.000000000000000000, 0.0000000000000000000 ) ) ;
#140 = CLOSED_SHELL ( 'NONE', ( #154, #20, #100 ) ) ;
#141 = CIRCLE ( 'NONE', #41, 0.09999999999999995004 ) ;
#142 = EDGE_LOOP ( 'NONE', ( #198 ) ) ;
#143 = ORIENTED_EDGE ( 'NONE', *, *, #23, .T. ) ;
#144 = PERSON_AND_ORGANIZATION_ROLE ( 'design_owner' ) ;
#145 = CARTESIAN_POINT ( 'NONE',  ( 3.693062107928297155E-15, 7.498798913309266657E-34, 1.057735026918962484 ) ) ;
#146 = DIRECTION ( 'NONE',  ( -3.491481338843133355E-15, 1.224646799147353207E-16, -1.000000000000000000 ) ) ;
#147 = DIRECTION ( 'NONE',  ( 3.491481338843133355E-15, -1.224646799147353207E-16, 1.000000000000000000 ) ) ;
#148 = AXIS2_PLACEMENT_3D ( 'NONE', #85, #224, #236 ) ;
#149 = DATE_AND_TIME ( #120, #175 ) ;
#150 = CARTESIAN_POINT ( 'NONE',  ( 0.0000000000000000000, 0.0000000000000000000, 0.0000000000000000000 ) ) ;
#151 = DIRECTION ( 'NONE',  ( 0.0000000000000000000, 1.000000000000000000, 0.0000000000000000000 ) ) ;
#152 = ORIENTED_EDGE ( 'NONE', *, *, #122, .T. ) ;
#153 = EDGE_LOOP ( 'NONE', ( #164 ) ) ;
#154 = ADVANCED_FACE ( 'NONE', ( #168 ), #24, .T. ) ;
#155 = ADVANCED_BREP_SHAPE_REPRESENTATION ( '355375', ( #113, #195, #22 ), #230 ) ;
#156 = EDGE_CURVE ( 'NONE', #240, #240, #211, .T. ) ;
#157 = ORIENTED_EDGE ( 'NONE', *, *, #165, .T. ) ;
#158 = COORDINATED_UNIVERSAL_TIME_OFFSET ( 1, 0, .AHEAD. ) ;
#159 = CARTESIAN_POINT ( 'NONE',  ( 6.579801139515944633E-15, -2.350263365693959399E-16, 1.884529946162076364 ) ) ;
#160 = AXIS2_PLACEMENT_3D ( 'NONE', #203, #179, #201 ) ;
#161 = VERTEX_POINT ( 'NONE', #60 ) ;
#162 = APPROVAL_DATE_TIME ( #227, #82 ) ;
#163 = FACE_OUTER_BOUND ( 'NONE', #98, .T. ) ;
#164 = ORIENTED_EDGE ( 'NONE', *, *, #123, .T. ) ;
#165 = EDGE_CURVE ( 'NONE', #161, #161, #18, .T. ) ;
#166 = CARTESIAN_POINT ( 'NONE',  ( 3.693062107928297155E-15, 0.09999999999999982514, 1.057735026918962484 ) ) ;
#167 = FACE_OUTER_BOUND ( 'NONE', #7, .T. ) ;
#168 = FACE_OUTER_BOUND ( 'NONE', #108, .T. ) ;
#169 = FACE_BOUND ( 'NONE', #48, .T. ) ;
#170 = LOCAL_TIME ( 13, 11, 11.00000000000000000, #104 ) ;
#171 = CALENDAR_DATE ( 2021, 10, 11 ) ;
#172 = EDGE_CURVE ( 'NONE', #206, #206, #88, .T. ) ;
#173 = ORIENTED_EDGE ( 'NONE', *, *, #165, .F. ) ;
#174 = CIRCLE ( 'NONE', #138, 0.3999999999999989675 ) ;
#175 = LOCAL_TIME ( 13, 11, 11.00000000000000000, #111 ) ;
#176 = CC_DESIGN_DATE_AND_TIME_ASSIGNMENT ( #52, #130, ( #62 ) ) ;
#177 = CC_DESIGN_PERSON_AND_ORGANIZATION_ASSIGNMENT ( #110, #187, ( #62 ) ) ;
#178 = DIRECTION ( 'NONE',  ( -3.491481338843133355E-15, 1.224646799147353207E-16, -1.000000000000000000 ) ) ;
#179 = DIRECTION ( 'NONE',  ( 3.491481338843133355E-15, -1.224646799147353207E-16, 1.000000000000000000 ) ) ;
#180 = DIRECTION ( 'NONE',  ( 0.0000000000000000000, 0.0000000000000000000, 1.000000000000000000 ) ) ;
#181 = DIRECTION ( 'NONE',  ( 3.491481338843133355E-15, -1.247135059052984700E-16, 1.000000000000000000 ) ) ;
#182 = ADVANCED_FACE ( 'NONE', ( #89, #208 ), #53, .F. ) ;
#183 = ORIENTED_EDGE ( 'NONE', *, *, #172, .T. ) ;
#184 = CC_DESIGN_SECURITY_CLASSIFICATION ( #47, ( #105 ) ) ;
#185 = COORDINATED_UNIVERSAL_TIME_OFFSET ( 1, 0, .AHEAD. ) ;
#186 = CYLINDRICAL_SURFACE ( 'NONE', #63, 0.09999999999999996392 ) ;
#187 = PERSON_AND_ORGANIZATION_ROLE ( 'creator' ) ;
#188 = CALENDAR_DATE ( 2021, 10, 11 ) ;
#189 = FACE_OUTER_BOUND ( 'NONE', #115, .T. ) ;
#190 = SHAPE_DEFINITION_REPRESENTATION ( #136, #155 ) ;
#191 = DIRECTION ( 'NONE',  ( -3.491481338843133355E-15, 1.224646799147353207E-16, -1.000000000000000000 ) ) ;
#192 = APPROVAL_STATUS ( 'not_yet_approved' ) ;
#193 = APPROVAL_PERSON_ORGANIZATION ( #15, #82, #36 ) ;
#194 = ADVANCED_FACE ( 'NONE', ( #118, #169 ), #33, .T. ) ;
#195 = MANIFOLD_SOLID_BREP ( 'Corps-Déplacer/Copier1[2]', #140 ) ;
#196 = APPROVAL_PERSON_ORGANIZATION ( #92, #96, #218 ) ;
#197 = AXIS2_PLACEMENT_3D ( 'NONE', #68, #29, #94 ) ;
#198 = ORIENTED_EDGE ( 'NONE', *, *, #123, .F. ) ;
#199 = CARTESIAN_POINT ( 'NONE',  ( 2.015807690851627150E-16, -7.070501591499341119E-18, 0.05773502691896226918 ) ) ;
#200 = PERSON_AND_ORGANIZATION ( #67, #83 ) ;
#201 = DIRECTION ( 'NONE',  ( -4.554490559825208066E-31, -1.000000000000000000, -1.281975124255703048E-16 ) ) ;
#202 = VERTEX_POINT ( 'NONE', #220 ) ;
#203 = CARTESIAN_POINT ( 'NONE',  ( 3.491481338843133254E-12, -1.224646799147353249E-13, 1000.000000000000000 ) ) ;
#204 = APPROVAL_STATUS ( 'not_yet_approved' ) ;
#205 = FACE_OUTER_BOUND ( 'NONE', #90, .T. ) ;
#206 = VERTEX_POINT ( 'NONE', #166 ) ;
#207 = CALENDAR_DATE ( 2021, 10, 11 ) ;
#208 = FACE_OUTER_BOUND ( 'NONE', #109, .T. ) ;
#209 = DIRECTION ( 'NONE',  ( 1.000000000000000000, 0.0000000000000000000, 0.0000000000000000000 ) ) ;
#210 = DATE_TIME_ROLE ( 'classification_date' ) ;
#211 = CIRCLE ( 'NONE', #125, 0.09999999999999996392 ) ;
#212 = APPROVAL ( #192, 'UNSPECIFIED' ) ;
#213 = CARTESIAN_POINT ( 'NONE',  ( 4.565932442639068661E-15, -1.630922200022232794E-16, 1.307735026918959154 ) ) ;
#214 = EDGE_LOOP ( 'NONE', ( #183 ) ) ;
#215 = PERSON_AND_ORGANIZATION_ROLE ( 'design_supplier' ) ;
#216 = DIRECTION ( 'NONE',  ( 0.0000000000000000000, -1.000000000000000000, 0.0000000000000000000 ) ) ;
#217 = APPLICATION_PROTOCOL_DEFINITION ( 'international standard', 'config_control_design', 1994, #233 ) ;
#218 = APPROVAL_ROLE ( '' ) ;
#219 = PLANE ( 'NONE',  #21 ) ;
#220 = CARTESIAN_POINT ( 'NONE',  ( 1.047444401652940007E-13, 0.3999999999999953038, 30.00000000000000000 ) ) ;
#221 = EDGE_LOOP ( 'NONE', ( #235 ) ) ;
#222 = LOCAL_TIME ( 13, 11, 11.00000000000000000, #99 ) ;
#223 = DIRECTION ( 'NONE',  ( -3.491481338843133355E-15, 1.224646799147353207E-16, -1.000000000000000000 ) ) ;
#224 = DIRECTION ( 'NONE',  ( -3.491481338843133355E-15, 1.224646799147353207E-16, -1.000000000000000000 ) ) ;
#225 = EDGE_CURVE ( 'NONE', #202, #202, #174, .T. ) ;
#226 = VERTEX_POINT ( 'NONE', #91 ) ;
#227 = DATE_AND_TIME ( #207, #170 ) ;
#228 = AXIS2_PLACEMENT_3D ( 'NONE', #49, #34, #31 ) ;
#229 = AXIS2_PLACEMENT_3D ( 'NONE', #213, #181, #139 ) ;
#230 =( GEOMETRIC_REPRESENTATION_CONTEXT ( 3 ) GLOBAL_UNCERTAINTY_ASSIGNED_CONTEXT ( ( #76 ) ) GLOBAL_UNIT_ASSIGNED_CONTEXT ( ( #117, #238, #30 ) ) REPRESENTATION_CONTEXT ( 'NONE', 'WORKASPACE' ) );
#231 = FACE_BOUND ( 'NONE', #45, .T. ) ;
#232 = CIRCLE ( 'NONE', #197, 0.4999999999999991673 ) ;
#233 = APPLICATION_CONTEXT ( 'configuration controlled 3d designs of mechanical parts and assemblies' ) ;
#234 = DIRECTION ( 'NONE',  ( 4.275831445896958607E-31, 1.000000000000000000, 1.224646799147353207E-16 ) ) ;
#235 = ORIENTED_EDGE ( 'NONE', *, *, #156, .T. ) ;
#236 = DIRECTION ( 'NONE',  ( 4.275831445896958607E-31, 1.000000000000000000, 1.224646799147353207E-16 ) ) ;
#237 = ORIENTED_EDGE ( 'NONE', *, *, #122, .F. ) ;
#238 =( NAMED_UNIT ( * ) PLANE_ANGLE_UNIT ( ) SI_UNIT ( $, .RADIAN. ) );
#239 = DIRECTION ( 'NONE',  ( -4.275831445896958607E-31, -1.000000000000000000, -1.224646799147353207E-16 ) ) ;
#240 = VERTEX_POINT ( 'NONE', #79 ) ;
#241 = DIRECTION ( 'NONE',  ( -3.491481338843133355E-15, 1.224646799147353207E-16, -1.000000000000000000 ) ) ;
#242 = DIRECTION ( 'NONE',  ( 0.0000000000000000000, 1.000000000000000000, 0.0000000000000000000 ) ) ;
#243 = AXIS2_PLACEMENT_3D ( 'NONE', #145, #84, #239 ) ;
ENDSEC;
END-ISO-10303-21;
