ISO-10303-21;
HEADER;
FILE_DESCRIPTION (( 'STEP AP203' ),
    '1' );
FILE_NAME ('955374.step',
    '2021-11-10T12:11:12',
    ( '' ),
    ( '' ),
    'SwSTEP 2.0',
    'SolidWorks 2019',
    '' );
FILE_SCHEMA (( 'CONFIG_CONTROL_DESIGN' ));
ENDSEC;

DATA;
#1 = ORGANIZATION ( 'UNSPECIFIED', 'UNSPECIFIED', '' ) ;
#2 = PERSON_AND_ORGANIZATION_ROLE ( 'design_owner' ) ;
#3 = SECURITY_CLASSIFICATION_LEVEL ( 'unclassified' ) ;
#4 = DIRECTION ( 'NONE',  ( -3.491481338843133355E-15, 1.224646799147353207E-16, -1.000000000000000000 ) ) ;
#5 = CIRCLE ( 'NONE', #130, 0.1419872981077790752 ) ;
#6 = CC_DESIGN_SECURITY_CLASSIFICATION ( #200, ( #160 ) ) ;
#7 = PERSON_AND_ORGANIZATION ( #127, #1 ) ;
#8 = DIRECTION ( 'NONE',  ( 3.491481338843133355E-15, -1.224646799147353207E-16, 1.000000000000000000 ) ) ;
#9 = DIRECTION ( 'NONE',  ( -4.275831445896958607E-31, -1.000000000000000000, -1.224646799147353207E-16 ) ) ;
#10 = COORDINATED_UNIVERSAL_TIME_OFFSET ( 1, 0, .AHEAD. ) ;
#11 = EDGE_LOOP ( 'NONE', ( #174 ) ) ;
#12 = CARTESIAN_POINT ( 'NONE',  ( 3.642666915657004627E-15, -3.016398676522773811E-15, 1.043301270189221697 ) ) ;
#13 = PERSON_AND_ORGANIZATION_ROLE ( 'creator' ) ;
#14 = FACE_OUTER_BOUND ( 'NONE', #156, .T. ) ;
#15 = DIRECTION ( 'NONE',  ( 3.209883240645393672E-31, 1.000000000000000000, 9.035018104045871927E-17 ) ) ;
#16 = DIRECTION ( 'NONE',  ( 0.0000000000000000000, -1.000000000000000000, 0.0000000000000000000 ) ) ;
#17 = CARTESIAN_POINT ( 'NONE',  ( 1.047444401652940007E-13, 0.3999999999999953038, 30.00000000000000000 ) ) ;
#18 = CARTESIAN_POINT ( 'NONE',  ( 0.0000000000000000000, 0.0000000000000000000, 0.0000000000000000000 ) ) ;
#19 = CONICAL_SURFACE ( 'NONE', #178, 0.3999999999999989675, 0.7853981633974694843 ) ;
#20 = CC_DESIGN_PERSON_AND_ORGANIZATION_ASSIGNMENT ( #229, #13, ( #159 ) ) ;
#21 = EDGE_LOOP ( 'NONE', ( #64 ) ) ;
#22 = AXIS2_PLACEMENT_3D ( 'NONE', #187, #212, #25 ) ;
#23 = APPLICATION_PROTOCOL_DEFINITION ( 'international standard', 'config_control_design', 1994, #225 ) ;
#24 = APPROVAL_DATE_TIME ( #235, #198 ) ;
#25 = DIRECTION ( 'NONE',  ( -4.554490559825206315E-31, -1.000000000000000000, -1.281975124255702555E-16 ) ) ;
#26 = CC_DESIGN_PERSON_AND_ORGANIZATION_ASSIGNMENT ( #7, #170, ( #160 ) ) ;
#27 = CARTESIAN_POINT ( 'NONE',  ( 1.511855768138720362E-16, 0.07499999999999998335, 0.04330127018922169668 ) ) ;
#28 = PERSON_AND_ORGANIZATION ( #127, #1 ) ;
#29 = EDGE_LOOP ( 'NONE', ( #196 ) ) ;
#30 = CARTESIAN_POINT ( 'NONE',  ( 3.642666915657004627E-15, -1.084202172485504434E-16, 1.043301270189221697 ) ) ;
#31 = ADVANCED_FACE ( 'NONE', ( #14 ), #236, .T. ) ;
#32 = COORDINATED_UNIVERSAL_TIME_OFFSET ( 1, 0, .AHEAD. ) ;
#33 = ORIENTED_EDGE ( 'NONE', *, *, #169, .T. ) ;
#34 = DIRECTION ( 'NONE',  ( -3.491481338843133355E-15, 1.224646799147353207E-16, -1.000000000000000000 ) ) ;
#35 = SHAPE_DEFINITION_REPRESENTATION ( #77, #219 ) ;
#36 = DIRECTION ( 'NONE',  ( 0.0000000000000000000, 1.000000000000000000, 0.0000000000000000000 ) ) ;
#37 = VERTEX_POINT ( 'NONE', #27 ) ;
#38 = AXIS2_PLACEMENT_3D ( 'NONE', #138, #88, #60 ) ;
#39 = DIRECTION ( 'NONE',  ( 4.399344443121421646E-31, 1.000000000000000000, 1.224646799147353207E-16 ) ) ;
#40 = CC_DESIGN_PERSON_AND_ORGANIZATION_ASSIGNMENT ( #183, #2, ( #78 ) ) ;
#41 = APPLICATION_CONTEXT ( 'configuration controlled 3d designs of mechanical parts and assemblies' ) ;
#42 = MECHANICAL_CONTEXT ( 'NONE', #41, 'mechanical' ) ;
#43 = ADVANCED_FACE ( 'NONE', ( #115, #82 ), #19, .T. ) ;
#44 = EDGE_LOOP ( 'NONE', ( #51 ) ) ;
#45 = EDGE_LOOP ( 'NONE', ( #33 ) ) ;
#46 = DIRECTION ( 'NONE',  ( 0.0000000000000000000, -1.000000000000000000, 0.0000000000000000000 ) ) ;
#47 = APPROVAL_DATE_TIME ( #69, #203 ) ;
#48 = APPROVAL_PERSON_ORGANIZATION ( #84, #198, #155 ) ;
#49 = CARTESIAN_POINT ( 'NONE',  ( 6.680591524058537577E-15, -2.386265053796966337E-16, 1.913397459621560825 ) ) ;
#50 = APPROVAL_STATUS ( 'not_yet_approved' ) ;
#51 = ORIENTED_EDGE ( 'NONE', *, *, #79, .F. ) ;
#52 = DIRECTION ( 'NONE',  ( -3.491481338843133355E-15, 1.224646799147353207E-16, -1.000000000000000000 ) ) ;
#53 = CARTESIAN_POINT ( 'NONE',  ( 4.515537250367780078E-15, -1.612921355970731791E-16, 1.293301270189219032 ) ) ;
#54 = AXIS2_PLACEMENT_3D ( 'NONE', #93, #8, #100 ) ;
#55 = LOCAL_TIME ( 13, 11, 12.00000000000000000, #32 ) ;
#56 = ADVANCED_FACE ( 'NONE', ( #152 ), #171, .F. ) ;
#57 = CC_DESIGN_APPROVAL ( #237, ( #159 ) ) ;
#58 = EDGE_LOOP ( 'NONE', ( #133 ) ) ;
#59 = ADVANCED_FACE ( 'NONE', ( #101, #67 ), #136, .T. ) ;
#60 = DIRECTION ( 'NONE',  ( 0.0000000000000000000, 1.000000000000000000, 0.0000000000000000000 ) ) ;
#61 = CLOSED_SHELL ( 'NONE', ( #91, #59, #31 ) ) ;
#62 = LOCAL_TIME ( 13, 11, 12.00000000000000000, #208 ) ;
#63 = CALENDAR_DATE ( 2021, 10, 11 ) ;
#64 = ORIENTED_EDGE ( 'NONE', *, *, #79, .T. ) ;
#65 = MANIFOLD_SOLID_BREP ( 'Corps-Déplacer/Copier1[2]', #61 ) ;
#66 = APPROVAL_DATE_TIME ( #148, #237 ) ;
#67 = FACE_OUTER_BOUND ( 'NONE', #44, .T. ) ;
#68 = VERTEX_POINT ( 'NONE', #211 ) ;
#69 = DATE_AND_TIME ( #73, #96 ) ;
#70 = ORIENTED_EDGE ( 'NONE', *, *, #81, .T. ) ;
#71 = PRODUCT_RELATED_PRODUCT_CATEGORY ( 'detail', '', ( #78 ) ) ;
#72 = VERTEX_POINT ( 'NONE', #233 ) ;
#73 = CALENDAR_DATE ( 2021, 10, 11 ) ;
#74 = CARTESIAN_POINT ( 'NONE',  ( 1.047444401652940007E-13, 2.999519565323652267E-33, 30.00000000000000000 ) ) ;
#75 = CYLINDRICAL_SURFACE ( 'NONE', #80, 0.4999999999999978351 ) ;
#76 = CC_DESIGN_DATE_AND_TIME_ASSIGNMENT ( #109, #214, ( #200 ) ) ;
#77 = PRODUCT_DEFINITION_SHAPE ( 'NONE', 'NONE',  #159 ) ;
#78 = PRODUCT ( '955374', '955374', '', ( #42 ) ) ;
#79 = EDGE_CURVE ( 'NONE', #37, #37, #206, .T. ) ;
#80 = AXIS2_PLACEMENT_3D ( 'NONE', #217, #134, #218 ) ;
#81 = EDGE_CURVE ( 'NONE', #192, #192, #144, .T. ) ;
#82 = FACE_BOUND ( 'NONE', #29, .T. ) ;
#83 = EDGE_LOOP ( 'NONE', ( #85 ) ) ;
#84 = PERSON_AND_ORGANIZATION ( #127, #1 ) ;
#85 = ORIENTED_EDGE ( 'NONE', *, *, #185, .T. ) ;
#86 =( LENGTH_UNIT ( ) NAMED_UNIT ( * ) SI_UNIT ( .MILLI., .METRE. ) );
#87 = AXIS2_PLACEMENT_3D ( 'NONE', #49, #120, #46 ) ;
#88 = DIRECTION ( 'NONE',  ( -3.491481338843133355E-15, 1.224646799147353207E-16, -1.000000000000000000 ) ) ;
#89 = CARTESIAN_POINT ( 'NONE',  ( 3.642666915657004627E-15, 0.07499999999999987232, 1.043301270189221697 ) ) ;
#90 = CLOSED_SHELL ( 'NONE', ( #131, #43, #56, #145, #164, #180 ) ) ;
#91 = ADVANCED_FACE ( 'NONE', ( #129 ), #167, .T. ) ;
#92 = ORIENTED_EDGE ( 'NONE', *, *, #169, .F. ) ;
#93 = CARTESIAN_POINT ( 'NONE',  ( 3.642666915657004627E-15, -3.016398676522773811E-15, 1.043301270189221697 ) ) ;
#94 = EDGE_LOOP ( 'NONE', ( #110 ) ) ;
#95 = CIRCLE ( 'NONE', #87, 0.4999999999999978351 ) ;
#96 = LOCAL_TIME ( 13, 11, 12.00000000000000000, #117 ) ;
#97 = DIRECTION ( 'NONE',  ( 3.491481338843133355E-15, -1.224646799147353207E-16, 1.000000000000000000 ) ) ;
#98 = DIRECTION ( 'NONE',  ( -3.491481338843133355E-15, 1.224646799147353207E-16, -1.000000000000000000 ) ) ;
#99 = DIRECTION ( 'NONE',  ( 0.0000000000000000000, 1.000000000000000000, 0.0000000000000000000 ) ) ;
#100 = DIRECTION ( 'NONE',  ( -4.275831445896958607E-31, -1.000000000000000000, -1.224646799147353207E-16 ) ) ;
#101 = FACE_OUTER_BOUND ( 'NONE', #83, .T. ) ;
#102 = EDGE_CURVE ( 'NONE', #153, #153, #223, .T. ) ;
#103 = FACE_BOUND ( 'NONE', #112, .T. ) ;
#104 = CONICAL_SURFACE ( 'NONE', #121, 0.5999999999999978684, 0.5235987755982928205 ) ;
#105 = VERTEX_POINT ( 'NONE', #177 ) ;
#106 = CC_DESIGN_PERSON_AND_ORGANIZATION_ASSIGNMENT ( #114, #195, ( #200 ) ) ;
#107 = LOCAL_TIME ( 13, 11, 12.00000000000000000, #10 ) ;
#108 = APPLICATION_PROTOCOL_DEFINITION ( 'international standard', 'config_control_design', 1994, #41 ) ;
#109 = DATE_AND_TIME ( #63, #107 ) ;
#110 = ORIENTED_EDGE ( 'NONE', *, *, #205, .F. ) ;
#111 = DATE_TIME_ROLE ( 'creation_date' ) ;
#112 = EDGE_LOOP ( 'NONE', ( #215 ) ) ;
#113 = DIRECTION ( 'NONE',  ( 3.491481338843133355E-15, -1.247135059052984700E-16, 1.000000000000000000 ) ) ;
#114 = PERSON_AND_ORGANIZATION ( #127, #1 ) ;
#115 = FACE_OUTER_BOUND ( 'NONE', #58, .T. ) ;
#116 = FACE_OUTER_BOUND ( 'NONE', #165, .T. ) ;
#117 = COORDINATED_UNIVERSAL_TIME_OFFSET ( 1, 0, .AHEAD. ) ;
#118 = ORIENTED_EDGE ( 'NONE', *, *, #81, .F. ) ;
#119 = DIRECTION ( 'NONE',  ( 0.0000000000000000000, 1.000000000000000000, 0.0000000000000000000 ) ) ;
#120 = DIRECTION ( 'NONE',  ( -3.491481338843133355E-15, 1.247135059052984700E-16, -1.000000000000000000 ) ) ;
#121 = AXIS2_PLACEMENT_3D ( 'NONE', #139, #172, #176 ) ;
#122 = AXIS2_PLACEMENT_3D ( 'NONE', #210, #4, #150 ) ;
#123 = APPROVAL_PERSON_ORGANIZATION ( #135, #203, #132 ) ;
#124 = AXIS2_PLACEMENT_3D ( 'NONE', #74, #193, #230 ) ;
#125 = CIRCLE ( 'NONE', #240, 0.3999999999999989675 ) ;
#126 = PERSON_AND_ORGANIZATION ( #127, #1 ) ;
#127 = PERSON ( 'UNSPECIFIED', 'UNSPECIFIED', 'UNSPECIFIED', ('UNSPECIFIED'), ('UNSPECIFIED'), ('UNSPECIFIED') ) ;
#128 = PERSON_AND_ORGANIZATION_ROLE ( 'design_supplier' ) ;
#129 = FACE_OUTER_BOUND ( 'NONE', #21, .T. ) ;
#130 = AXIS2_PLACEMENT_3D ( 'NONE', #53, #113, #16 ) ;
#131 = ADVANCED_FACE ( 'NONE', ( #239, #142 ), #75, .T. ) ;
#132 = APPROVAL_ROLE ( '' ) ;
#133 = ORIENTED_EDGE ( 'NONE', *, *, #102, .F. ) ;
#134 = DIRECTION ( 'NONE',  ( -3.491481338843133355E-15, 1.224646799147353207E-16, -1.000000000000000000 ) ) ;
#135 = PERSON_AND_ORGANIZATION ( #127, #1 ) ;
#136 = CYLINDRICAL_SURFACE ( 'NONE', #122, 0.07499999999999998335 ) ;
#137 = PLANE ( 'NONE',  #184 ) ;
#138 = CARTESIAN_POINT ( 'NONE',  ( 3.642666915657004627E-15, -1.277675561083598269E-16, 1.043301270189221697 ) ) ;
#139 = CARTESIAN_POINT ( 'NONE',  ( 7.285333831314037654E-15, -2.602275182414987255E-16, 2.086602540378450943 ) ) ;
#140 = ORIENTED_EDGE ( 'NONE', *, *, #161, .F. ) ;
#141 = CARTESIAN_POINT ( 'NONE',  ( 3.642666915657004627E-15, -1.277675561083598269E-16, 1.043301270189221697 ) ) ;
#142 = FACE_OUTER_BOUND ( 'NONE', #191, .T. ) ;
#143 = FACE_OUTER_BOUND ( 'NONE', #45, .T. ) ;
#144 = CIRCLE ( 'NONE', #38, 0.07499999999999999722 ) ;
#145 = ADVANCED_FACE ( 'NONE', ( #103, #143 ), #104, .T. ) ;
#146 = DIRECTION ( 'NONE',  ( 0.0000000000000000000, 0.0000000000000000000, 1.000000000000000000 ) ) ;
#147 =( GEOMETRIC_REPRESENTATION_CONTEXT ( 3 ) GLOBAL_UNCERTAINTY_ASSIGNED_CONTEXT ( ( #222 ) ) GLOBAL_UNIT_ASSIGNED_CONTEXT ( ( #86, #238, #216 ) ) REPRESENTATION_CONTEXT ( 'NONE', 'WORKASPACE' ) );
#148 = DATE_AND_TIME ( #227, #55 ) ;
#149 = CC_DESIGN_PERSON_AND_ORGANIZATION_ASSIGNMENT ( #28, #128, ( #160 ) ) ;
#150 = DIRECTION ( 'NONE',  ( 4.275831445896958607E-31, 1.000000000000000000, 1.224646799147353207E-16 ) ) ;
#151 = APPROVAL_STATUS ( 'not_yet_approved' ) ;
#152 = FACE_OUTER_BOUND ( 'NONE', #94, .T. ) ;
#153 = VERTEX_POINT ( 'NONE', #154 ) ;
#154 = CARTESIAN_POINT ( 'NONE',  ( 1.043952920314096936E-13, 0.4999999999999954481, 29.90000000000000213 ) ) ;
#155 = APPROVAL_ROLE ( '' ) ;
#156 = EDGE_LOOP ( 'NONE', ( #224 ) ) ;
#157 = CARTESIAN_POINT ( 'NONE',  ( 1.047444401652940007E-13, -3.673940397442059178E-15, 30.00000000000000000 ) ) ;
#158 = VERTEX_POINT ( 'NONE', #17 ) ;
#159 = PRODUCT_DEFINITION ( 'UNKNOWN', '', #160, #202 ) ;
#160 = PRODUCT_DEFINITION_FORMATION_WITH_SPECIFIED_SOURCE ( 'ANY', '', #78, .NOT_KNOWN. ) ;
#161 = EDGE_CURVE ( 'NONE', #72, #72, #5, .T. ) ;
#162 = DIRECTION ( 'NONE',  ( 1.000000000000000000, 0.0000000000000000000, 0.0000000000000000000 ) ) ;
#163 = LOCAL_TIME ( 13, 11, 12.00000000000000000, #190 ) ;
#164 = ADVANCED_FACE ( 'NONE', ( #168 ), #137, .F. ) ;
#165 = EDGE_LOOP ( 'NONE', ( #118 ) ) ;
#166 = EDGE_LOOP ( 'NONE', ( #70 ) ) ;
#167 = CONICAL_SURFACE ( 'NONE', #22, 1732.050807568886512, 1.047197551196600074 ) ;
#168 = FACE_OUTER_BOUND ( 'NONE', #166, .T. ) ;
#169 = EDGE_CURVE ( 'NONE', #68, #68, #95, .T. ) ;
#170 = PERSON_AND_ORGANIZATION_ROLE ( 'creator' ) ;
#171 = PLANE ( 'NONE',  #124 ) ;
#172 = DIRECTION ( 'NONE',  ( 3.491481338843133355E-15, -1.247135059052984700E-16, 1.000000000000000000 ) ) ;
#173 = APPROVAL_ROLE ( '' ) ;
#174 = ORIENTED_EDGE ( 'NONE', *, *, #102, .T. ) ;
#175 = CALENDAR_DATE ( 2021, 10, 11 ) ;
#176 = DIRECTION ( 'NONE',  ( 0.0000000000000000000, -1.000000000000000000, 0.0000000000000000000 ) ) ;
#177 = CARTESIAN_POINT ( 'NONE',  ( 3.642666915657004627E-15, 0.07499999999999987232, 1.043301270189221697 ) ) ;
#178 = AXIS2_PLACEMENT_3D ( 'NONE', #157, #207, #36 ) ;
#179 = AXIS2_PLACEMENT_3D ( 'NONE', #18, #146, #162 ) ;
#180 = ADVANCED_FACE ( 'NONE', ( #116, #201 ), #241, .F. ) ;
#181 = AXIS2_PLACEMENT_3D ( 'NONE', #228, #52, #119 ) ;
#182 = CC_DESIGN_APPROVAL ( #198, ( #160 ) ) ;
#183 = PERSON_AND_ORGANIZATION ( #127, #1 ) ;
#184 = AXIS2_PLACEMENT_3D ( 'NONE', #12, #97, #9 ) ;
#185 = EDGE_CURVE ( 'NONE', #105, #105, #226, .T. ) ;
#186 = CALENDAR_DATE ( 2021, 10, 11 ) ;
#187 = CARTESIAN_POINT ( 'NONE',  ( 3.491481338843133254E-12, -1.224646799147353249E-13, 1000.000000000000000 ) ) ;
#188 = EDGE_LOOP ( 'NONE', ( #140 ) ) ;
#189 = CARTESIAN_POINT ( 'NONE',  ( 1.047444401652940007E-13, -3.673940397442059178E-15, 30.00000000000000000 ) ) ;
#190 = COORDINATED_UNIVERSAL_TIME_OFFSET ( 1, 0, .AHEAD. ) ;
#191 = EDGE_LOOP ( 'NONE', ( #92 ) ) ;
#192 = VERTEX_POINT ( 'NONE', #89 ) ;
#193 = DIRECTION ( 'NONE',  ( -3.491481338843133355E-15, 1.224646799147353207E-16, -1.000000000000000000 ) ) ;
#194 = DIRECTION ( 'NONE',  ( -3.491481338843133355E-15, 1.224646799147353207E-16, -1.000000000000000000 ) ) ;
#195 = PERSON_AND_ORGANIZATION_ROLE ( 'classification_officer' ) ;
#196 = ORIENTED_EDGE ( 'NONE', *, *, #205, .T. ) ;
#197 = DIRECTION ( 'NONE',  ( -3.491481338843133355E-15, 1.224646799147353207E-16, -1.000000000000000000 ) ) ;
#198 = APPROVAL ( #231, 'UNSPECIFIED' ) ;
#199 = AXIS2_PLACEMENT_3D ( 'NONE', #30, #197, #39 ) ;
#200 = SECURITY_CLASSIFICATION ( '', '', #3 ) ;
#201 = FACE_OUTER_BOUND ( 'NONE', #188, .T. ) ;
#202 = DESIGN_CONTEXT ( 'detailed design', #225, 'design' ) ;
#203 = APPROVAL ( #50, 'UNSPECIFIED' ) ;
#204 = APPROVAL_PERSON_ORGANIZATION ( #126, #237, #173 ) ;
#205 = EDGE_CURVE ( 'NONE', #158, #158, #125, .T. ) ;
#206 = CIRCLE ( 'NONE', #234, 0.07499999999999998335 ) ;
#207 = DIRECTION ( 'NONE',  ( -3.491481338843133355E-15, 1.224646799147353207E-16, -1.000000000000000000 ) ) ;
#208 = COORDINATED_UNIVERSAL_TIME_OFFSET ( 1, 0, .AHEAD. ) ;
#209 = DATE_AND_TIME ( #175, #62 ) ;
#210 = CARTESIAN_POINT ( 'NONE',  ( 0.0000000000000000000, 0.0000000000000000000, 0.0000000000000000000 ) ) ;
#211 = CARTESIAN_POINT ( 'NONE',  ( 6.680591524058537577E-15, -0.4999999999999980571, 1.913397459621560825 ) ) ;
#212 = DIRECTION ( 'NONE',  ( 3.491481338843133355E-15, -1.224646799147353207E-16, 1.000000000000000000 ) ) ;
#213 = DIRECTION ( 'NONE',  ( 0.0000000000000000000, 1.000000000000000000, 0.0000000000000000000 ) ) ;
#214 = DATE_TIME_ROLE ( 'classification_date' ) ;
#215 = ORIENTED_EDGE ( 'NONE', *, *, #161, .T. ) ;
#216 =( NAMED_UNIT ( * ) SI_UNIT ( $, .STERADIAN. ) SOLID_ANGLE_UNIT ( ) );
#217 = CARTESIAN_POINT ( 'NONE',  ( 0.0000000000000000000, 0.0000000000000000000, 0.0000000000000000000 ) ) ;
#218 = DIRECTION ( 'NONE',  ( 4.275831445896958607E-31, 1.000000000000000000, 1.224646799147353207E-16 ) ) ;
#219 = ADVANCED_BREP_SHAPE_REPRESENTATION ( '955374', ( #220, #65, #179 ), #147 ) ;
#220 = MANIFOLD_SOLID_BREP ( 'Corps-Déplacer/Copier1[1]', #90 ) ;
#221 = AXIS2_PLACEMENT_3D ( 'NONE', #141, #194, #99 ) ;
#222 = UNCERTAINTY_MEASURE_WITH_UNIT (LENGTH_MEASURE( 1.000000000000000082E-05 ), #86, 'distance_accuracy_value', 'NONE');
#223 = CIRCLE ( 'NONE', #181, 0.4999999999999991673 ) ;
#224 = ORIENTED_EDGE ( 'NONE', *, *, #185, .F. ) ;
#225 = APPLICATION_CONTEXT ( 'configuration controlled 3d designs of mechanical parts and assemblies' ) ;
#226 = CIRCLE ( 'NONE', #221, 0.07499999999999999722 ) ;
#227 = CALENDAR_DATE ( 2021, 10, 11 ) ;
#228 = CARTESIAN_POINT ( 'NONE',  ( 1.043952920314096936E-13, -3.661693929450586610E-15, 29.90000000000000213 ) ) ;
#229 = PERSON_AND_ORGANIZATION ( #127, #1 ) ;
#230 = DIRECTION ( 'NONE',  ( 4.275831445896958607E-31, 1.000000000000000000, 1.224646799147353207E-16 ) ) ;
#231 = APPROVAL_STATUS ( 'not_yet_approved' ) ;
#232 = CARTESIAN_POINT ( 'NONE',  ( 1.511855768138720116E-16, -5.302876193624504684E-18, 0.04330127018922168974 ) ) ;
#233 = CARTESIAN_POINT ( 'NONE',  ( 4.515537250367780078E-15, -0.1419872981077792418, 1.293301270189219032 ) ) ;
#234 = AXIS2_PLACEMENT_3D ( 'NONE', #232, #98, #15 ) ;
#235 = DATE_AND_TIME ( #186, #163 ) ;
#236 = PLANE ( 'NONE',  #54 ) ;
#237 = APPROVAL ( #151, 'UNSPECIFIED' ) ;
#238 =( NAMED_UNIT ( * ) PLANE_ANGLE_UNIT ( ) SI_UNIT ( $, .RADIAN. ) );
#239 = FACE_OUTER_BOUND ( 'NONE', #11, .T. ) ;
#240 = AXIS2_PLACEMENT_3D ( 'NONE', #189, #34, #213 ) ;
#241 = TOROIDAL_SURFACE ( 'NONE', #199, 0.5749999999999999556, 0.5000000000000000000 ) ;
#242 = CC_DESIGN_APPROVAL ( #203, ( #200 ) ) ;
#243 = CC_DESIGN_DATE_AND_TIME_ASSIGNMENT ( #209, #111, ( #159 ) ) ;
ENDSEC;
END-ISO-10303-21;
