ISO-10303-21;
HEADER;
FILE_DESCRIPTION (( 'STEP AP203' ),
    '1' );
FILE_NAME ('955371.step',
    '2021-11-10T12:11:11',
    ( '' ),
    ( '' ),
    'SwSTEP 2.0',
    'SolidWorks 2019',
    '' );
FILE_SCHEMA (( 'CONFIG_CONTROL_DESIGN' ));
ENDSEC;

DATA;
#1 = CC_DESIGN_DATE_AND_TIME_ASSIGNMENT ( #6, #135, ( #130 ) ) ;
#2 = CARTESIAN_POINT ( 'NONE',  ( 1.047444401652940007E-13, -3.673940397442059178E-15, 30.00000000000000000 ) ) ;
#3 = AXIS2_PLACEMENT_3D ( 'NONE', #208, #188, #87 ) ;
#4 = PERSON_AND_ORGANIZATION ( #155, #72 ) ;
#5 = MECHANICAL_CONTEXT ( 'NONE', #205, 'mechanical' ) ;
#6 = DATE_AND_TIME ( #73, #79 ) ;
#7 = DIRECTION ( 'NONE',  ( -3.491481338843133355E-15, 1.224646799147353207E-16, -1.000000000000000000 ) ) ;
#8 = DIRECTION ( 'NONE',  ( 4.339058337333290564E-31, 1.000000000000000000, 1.224646799147353207E-16 ) ) ;
#9 = AXIS2_PLACEMENT_3D ( 'NONE', #184, #91, #186 ) ;
#10 = PLANE ( 'NONE',  #25 ) ;
#11 = DIRECTION ( 'NONE',  ( 0.0000000000000000000, -1.000000000000000000, 0.0000000000000000000 ) ) ;
#12 = EDGE_LOOP ( 'NONE', ( #44 ) ) ;
#13 = EDGE_CURVE ( 'NONE', #92, #92, #64, .T. ) ;
#14 = FACE_OUTER_BOUND ( 'NONE', #140, .T. ) ;
#15 = CC_DESIGN_SECURITY_CLASSIFICATION ( #130, ( #234 ) ) ;
#16 = VERTEX_POINT ( 'NONE', #66 ) ;
#17 = VERTEX_POINT ( 'NONE', #145 ) ;
#18 = FACE_OUTER_BOUND ( 'NONE', #12, .T. ) ;
#19 = DATE_AND_TIME ( #136, #146 ) ;
#20 = CIRCLE ( 'NONE', #192, 0.3999999999999989675 ) ;
#21 = APPROVAL_PERSON_ORGANIZATION ( #4, #34, #147 ) ;
#22 = APPROVAL_DATE_TIME ( #227, #34 ) ;
#23 = DATE_TIME_ROLE ( 'creation_date' ) ;
#24 = CALENDAR_DATE ( 2021, 10, 11 ) ;
#25 = AXIS2_PLACEMENT_3D ( 'NONE', #226, #144, #242 ) ;
#26 = CARTESIAN_POINT ( 'NONE',  ( 2.544827321732774460E-15, -8.926052673606438628E-17, 0.7288675134594810867 ) ) ;
#27 = EDGE_LOOP ( 'NONE', ( #30 ) ) ;
#28 = CARTESIAN_POINT ( 'NONE',  ( 6.338679814203682702E-15, -2.264136352802096564E-16, 1.815470053837933362 ) ) ;
#29 = DIRECTION ( 'NONE',  ( -3.491481338843133355E-15, 1.224646799147353207E-16, -1.000000000000000000 ) ) ;
#30 = ORIENTED_EDGE ( 'NONE', *, *, #62, .T. ) ;
#31 = PLANE ( 'NONE',  #3 ) ;
#32 = MANIFOLD_SOLID_BREP ( 'Corps-Déplacer/Copier1[1]', #94 ) ;
#33 = FACE_OUTER_BOUND ( 'NONE', #121, .T. ) ;
#34 = APPROVAL ( #231, 'UNSPECIFIED' ) ;
#35 = DIRECTION ( 'NONE',  ( 3.491481338843133355E-15, -1.224646799147353207E-16, 1.000000000000000000 ) ) ;
#36 = PERSON_AND_ORGANIZATION_ROLE ( 'creator' ) ;
#37 = PERSON_AND_ORGANIZATION ( #155, #72 ) ;
#38 = ADVANCED_BREP_SHAPE_REPRESENTATION ( '955371', ( #32, #112, #215 ), #197 ) ;
#39 = COORDINATED_UNIVERSAL_TIME_OFFSET ( 1, 0, .AHEAD. ) ;
#40 = AXIS2_PLACEMENT_3D ( 'NONE', #223, #7, #8 ) ;
#41 = DIRECTION ( 'NONE',  ( -3.491481338843133355E-15, 1.224646799147353207E-16, -1.000000000000000000 ) ) ;
#42 = EDGE_CURVE ( 'NONE', #185, #185, #129, .T. ) ;
#43 = CYLINDRICAL_SURFACE ( 'NONE', #109, 0.4999999999999978351 ) ;
#44 = ORIENTED_EDGE ( 'NONE', *, *, #206, .F. ) ;
#45 = ADVANCED_FACE ( 'NONE', ( #82, #233 ), #143, .F. ) ;
#46 = DIRECTION ( 'NONE',  ( -3.491481338843133355E-15, 1.224646799147353207E-16, -1.000000000000000000 ) ) ;
#47 = CARTESIAN_POINT ( 'NONE',  ( 5.733937506948182626E-15, -0.4999999999999980571, 1.642264973081042800 ) ) ;
#48 = CONICAL_SURFACE ( 'NONE', #116, 1732.050807568886512, 1.047197551196600074 ) ;
#49 = DIRECTION ( 'NONE',  ( 0.0000000000000000000, 1.000000000000000000, 0.0000000000000000000 ) ) ;
#50 = DIRECTION ( 'NONE',  ( -3.491481338843133355E-15, 1.224646799147353207E-16, -1.000000000000000000 ) ) ;
#51 =( NAMED_UNIT ( * ) SI_UNIT ( $, .STERADIAN. ) SOLID_ANGLE_UNIT ( ) );
#52 = CIRCLE ( 'NONE', #78, 0.04999999999999999584 ) ;
#53 = CALENDAR_DATE ( 2021, 10, 11 ) ;
#54 = COORDINATED_UNIVERSAL_TIME_OFFSET ( 1, 0, .AHEAD. ) ;
#55 = PERSON_AND_ORGANIZATION ( #155, #72 ) ;
#56 = APPROVAL_DATE_TIME ( #173, #202 ) ;
#57 = PLANE ( 'NONE',  #182 ) ;
#58 = CIRCLE ( 'NONE', #221, 0.4999999999999991673 ) ;
#59 = CONICAL_SURFACE ( 'NONE', #169, 0.3999999999999989675, 0.7853981633974694843 ) ;
#60 = EDGE_LOOP ( 'NONE', ( #157 ) ) ;
#61 = DIRECTION ( 'NONE',  ( -3.491481338843133355E-15, 1.247135059052984700E-16, -1.000000000000000000 ) ) ;
#62 = EDGE_CURVE ( 'NONE', #167, #167, #160, .T. ) ;
#63 = ORIENTED_EDGE ( 'NONE', *, *, #106, .T. ) ;
#64 = CIRCLE ( 'NONE', #187, 0.04999999999999999584 ) ;
#65 = DIRECTION ( 'NONE',  ( -3.491481338843133355E-15, 1.224646799147353207E-16, -1.000000000000000000 ) ) ;
#66 = CARTESIAN_POINT ( 'NONE',  ( 1.047444401652940007E-13, 0.3999999999999953038, 30.00000000000000000 ) ) ;
#67 = CARTESIAN_POINT ( 'NONE',  ( 2.544827321732774460E-15, 0.04999999999999990563, 0.7288675134594810867 ) ) ;
#68 = FACE_BOUND ( 'NONE', #141, .T. ) ;
#69 = CC_DESIGN_PERSON_AND_ORGANIZATION_ASSIGNMENT ( #55, #96, ( #130 ) ) ;
#70 = FACE_OUTER_BOUND ( 'NONE', #217, .T. ) ;
#71 = CONICAL_SURFACE ( 'NONE', #214, 0.5999999999999979794, 0.5235987755982929315 ) ;
#72 = ORGANIZATION ( 'UNSPECIFIED', 'UNSPECIFIED', '' ) ;
#73 = CALENDAR_DATE ( 2021, 10, 11 ) ;
#74 = DESIGN_CONTEXT ( 'detailed design', #166, 'design' ) ;
#75 = ADVANCED_FACE ( 'NONE', ( #198, #219 ), #43, .T. ) ;
#76 = PERSON_AND_ORGANIZATION_ROLE ( 'design_supplier' ) ;
#77 = APPROVAL_ROLE ( '' ) ;
#78 = AXIS2_PLACEMENT_3D ( 'NONE', #26, #41, #102 ) ;
#79 = LOCAL_TIME ( 13, 11, 11.00000000000000000, #54 ) ;
#80 = DIRECTION ( 'NONE',  ( 4.275831445896958607E-31, 1.000000000000000000, 1.224646799147353207E-16 ) ) ;
#81 = EDGE_LOOP ( 'NONE', ( #220 ) ) ;
#82 = FACE_OUTER_BOUND ( 'NONE', #100, .T. ) ;
#83 = CC_DESIGN_PERSON_AND_ORGANIZATION_ASSIGNMENT ( #113, #191, ( #234 ) ) ;
#84 = FACE_OUTER_BOUND ( 'NONE', #238, .T. ) ;
#85 = ORIENTED_EDGE ( 'NONE', *, *, #236, .F. ) ;
#86 = AXIS2_PLACEMENT_3D ( 'NONE', #176, #46, #216 ) ;
#87 = DIRECTION ( 'NONE',  ( -4.275831445896958607E-31, -1.000000000000000000, -1.224646799147353207E-16 ) ) ;
#88 = VERTEX_POINT ( 'NONE', #225 ) ;
#89 = ADVANCED_FACE ( 'NONE', ( #200 ), #57, .T. ) ;
#90 = DIRECTION ( 'NONE',  ( 4.275831445896958607E-31, 1.000000000000000000, 1.224646799147353207E-16 ) ) ;
#91 = DIRECTION ( 'NONE',  ( 3.491481338843133355E-15, -1.247135059052984700E-16, 1.000000000000000000 ) ) ;
#92 = VERTEX_POINT ( 'NONE', #132 ) ;
#93 = SECURITY_CLASSIFICATION_LEVEL ( 'unclassified' ) ;
#94 = CLOSED_SHELL ( 'NONE', ( #75, #158, #139, #120, #148, #45 ) ) ;
#95 = DIRECTION ( 'NONE',  ( 0.0000000000000000000, 0.0000000000000000000, 1.000000000000000000 ) ) ;
#96 = PERSON_AND_ORGANIZATION_ROLE ( 'classification_officer' ) ;
#97 = APPROVAL_STATUS ( 'not_yet_approved' ) ;
#98 = ORIENTED_EDGE ( 'NONE', *, *, #13, .F. ) ;
#99 = ORIENTED_EDGE ( 'NONE', *, *, #209, .F. ) ;
#100 = EDGE_LOOP ( 'NONE', ( #230 ) ) ;
#101 = CC_DESIGN_DATE_AND_TIME_ASSIGNMENT ( #137, #23, ( #122 ) ) ;
#102 = DIRECTION ( 'NONE',  ( 0.0000000000000000000, 1.000000000000000000, 0.0000000000000000000 ) ) ;
#103 = PRODUCT_DEFINITION_SHAPE ( 'NONE', 'NONE',  #122 ) ;
#104 = DIRECTION ( 'NONE',  ( 3.491481338843133355E-15, -1.224646799147353207E-16, 1.000000000000000000 ) ) ;
#105 = CARTESIAN_POINT ( 'NONE',  ( 1.047444401652940007E-13, -3.673940397442059178E-15, 30.00000000000000000 ) ) ;
#106 = EDGE_CURVE ( 'NONE', #17, #17, #52, .T. ) ;
#107 = DIRECTION ( 'NONE',  ( -3.491481338843133355E-15, 1.224646799147353207E-16, -1.000000000000000000 ) ) ;
#108 = DIRECTION ( 'NONE',  ( -4.554490559825206315E-31, -1.000000000000000000, -1.281975124255702555E-16 ) ) ;
#109 = AXIS2_PLACEMENT_3D ( 'NONE', #123, #29, #80 ) ;
#110 = APPLICATION_PROTOCOL_DEFINITION ( 'international standard', 'config_control_design', 1994, #205 ) ;
#111 = PERSON_AND_ORGANIZATION ( #155, #72 ) ;
#112 = MANIFOLD_SOLID_BREP ( 'Corps-Déplacer/Copier1[2]', #114 ) ;
#113 = PERSON_AND_ORGANIZATION ( #155, #72 ) ;
#114 = CLOSED_SHELL ( 'NONE', ( #183, #228, #89 ) ) ;
#115 = APPLICATION_PROTOCOL_DEFINITION ( 'international standard', 'config_control_design', 1994, #166 ) ;
#116 = AXIS2_PLACEMENT_3D ( 'NONE', #204, #35, #108 ) ;
#117 = APPROVAL_ROLE ( '' ) ;
#118 = UNCERTAINTY_MEASURE_WITH_UNIT (LENGTH_MEASURE( 1.000000000000000082E-05 ), #207, 'distance_accuracy_value', 'NONE');
#119 = APPROVAL_DATE_TIME ( #19, #189 ) ;
#120 = ADVANCED_FACE ( 'NONE', ( #153, #203 ), #71, .T. ) ;
#121 = EDGE_LOOP ( 'NONE', ( #98 ) ) ;
#122 = PRODUCT_DEFINITION ( 'UNKNOWN', '', #234, #74 ) ;
#123 = CARTESIAN_POINT ( 'NONE',  ( 0.0000000000000000000, 0.0000000000000000000, 0.0000000000000000000 ) ) ;
#124 = LOCAL_TIME ( 13, 11, 11.00000000000000000, #170 ) ;
#125 = DIRECTION ( 'NONE',  ( 0.0000000000000000000, -1.000000000000000000, 0.0000000000000000000 ) ) ;
#126 = DIRECTION ( 'NONE',  ( -3.491481338843133355E-15, 1.224646799147353207E-16, -1.000000000000000000 ) ) ;
#127 = VERTEX_POINT ( 'NONE', #241 ) ;
#128 = PRODUCT ( '955371', '955371', '', ( #5 ) ) ;
#129 = CIRCLE ( 'NONE', #86, 0.04999999999999999584 ) ;
#130 = SECURITY_CLASSIFICATION ( '', '', #93 ) ;
#131 = APPROVAL_PERSON_ORGANIZATION ( #212, #202, #117 ) ;
#132 = CARTESIAN_POINT ( 'NONE',  ( 1.007903845425813821E-16, 0.04999999999999998890, 0.02886751345948114153 ) ) ;
#133 = FACE_OUTER_BOUND ( 'NONE', #151, .T. ) ;
#134 = CC_DESIGN_APPROVAL ( #189, ( #234 ) ) ;
#135 = DATE_TIME_ROLE ( 'classification_date' ) ;
#136 = CALENDAR_DATE ( 2021, 10, 11 ) ;
#137 = DATE_AND_TIME ( #53, #193 ) ;
#138 = CARTESIAN_POINT ( 'NONE',  ( 2.544827321732774460E-15, 3.749399456654630763E-34, 0.7288675134594810867 ) ) ;
#139 = ADVANCED_FACE ( 'NONE', ( #84 ), #10, .F. ) ;
#140 = EDGE_LOOP ( 'NONE', ( #201 ) ) ;
#141 = EDGE_LOOP ( 'NONE', ( #175 ) ) ;
#142 = DIRECTION ( 'NONE',  ( 4.814824860968089633E-31, 1.000000000000000000, 1.355252715606880543E-16 ) ) ;
#143 = TOROIDAL_SURFACE ( 'NONE', #40, 0.5500000000000000444, 0.5000000000000000000 ) ;
#144 = DIRECTION ( 'NONE',  ( -3.491481338843133355E-15, 1.224646799147353207E-16, -1.000000000000000000 ) ) ;
#145 = CARTESIAN_POINT ( 'NONE',  ( 2.544827321732774460E-15, 0.04999999999999990563, 0.7288675134594810867 ) ) ;
#146 = LOCAL_TIME ( 13, 11, 11.00000000000000000, #210 ) ;
#147 = APPROVAL_ROLE ( '' ) ;
#148 = ADVANCED_FACE ( 'NONE', ( #133 ), #31, .F. ) ;
#149 = PRODUCT_RELATED_PRODUCT_CATEGORY ( 'detail', '', ( #128 ) ) ;
#150 = PERSON_AND_ORGANIZATION ( #155, #72 ) ;
#151 = EDGE_LOOP ( 'NONE', ( #63 ) ) ;
#152 = EDGE_LOOP ( 'NONE', ( #239 ) ) ;
#153 = FACE_BOUND ( 'NONE', #235, .T. ) ;
#154 = AXIS2_PLACEMENT_3D ( 'NONE', #161, #165, #90 ) ;
#155 = PERSON ( 'UNSPECIFIED', 'UNSPECIFIED', 'UNSPECIFIED', ('UNSPECIFIED'), ('UNSPECIFIED'), ('UNSPECIFIED') ) ;
#156 = CARTESIAN_POINT ( 'NONE',  ( 5.733937506948182626E-15, -2.048126224184074906E-16, 1.642264973081042800 ) ) ;
#157 = ORIENTED_EDGE ( 'NONE', *, *, #42, .F. ) ;
#158 = ADVANCED_FACE ( 'NONE', ( #18, #68 ), #59, .T. ) ;
#159 = ORIENTED_EDGE ( 'NONE', *, *, #236, .T. ) ;
#160 = CIRCLE ( 'NONE', #177, 0.4999999999999978351 ) ;
#161 = CARTESIAN_POINT ( 'NONE',  ( 0.0000000000000000000, 0.0000000000000000000, 0.0000000000000000000 ) ) ;
#162 = CARTESIAN_POINT ( 'NONE',  ( 1.043952920314096936E-13, -3.661693929450586610E-15, 29.90000000000000213 ) ) ;
#163 =( NAMED_UNIT ( * ) PLANE_ANGLE_UNIT ( ) SI_UNIT ( $, .RADIAN. ) );
#164 = APPROVAL_PERSON_ORGANIZATION ( #111, #189, #77 ) ;
#165 = DIRECTION ( 'NONE',  ( -3.491481338843133355E-15, 1.224646799147353207E-16, -1.000000000000000000 ) ) ;
#166 = APPLICATION_CONTEXT ( 'configuration controlled 3d designs of mechanical parts and assemblies' ) ;
#167 = VERTEX_POINT ( 'NONE', #47 ) ;
#168 = CC_DESIGN_PERSON_AND_ORGANIZATION_ASSIGNMENT ( #150, #76, ( #234 ) ) ;
#169 = AXIS2_PLACEMENT_3D ( 'NONE', #105, #50, #243 ) ;
#170 = COORDINATED_UNIVERSAL_TIME_OFFSET ( 1, 0, .AHEAD. ) ;
#171 = CC_DESIGN_APPROVAL ( #34, ( #122 ) ) ;
#172 = PERSON_AND_ORGANIZATION_ROLE ( 'design_owner' ) ;
#173 = DATE_AND_TIME ( #232, #222 ) ;
#174 = CC_DESIGN_APPROVAL ( #202, ( #130 ) ) ;
#175 = ORIENTED_EDGE ( 'NONE', *, *, #209, .T. ) ;
#176 = CARTESIAN_POINT ( 'NONE',  ( 2.544827321732774460E-15, -8.926052673606438628E-17, 0.7288675134594810867 ) ) ;
#177 = AXIS2_PLACEMENT_3D ( 'NONE', #156, #61, #125 ) ;
#178 = DIRECTION ( 'NONE',  ( 3.491481338843133355E-15, -1.247135059052984700E-16, 1.000000000000000000 ) ) ;
#179 = EDGE_LOOP ( 'NONE', ( #85 ) ) ;
#180 = DIRECTION ( 'NONE',  ( -4.275831445896958607E-31, -1.000000000000000000, -1.224646799147353207E-16 ) ) ;
#181 = DIRECTION ( 'NONE',  ( 0.0000000000000000000, 1.000000000000000000, 0.0000000000000000000 ) ) ;
#182 = AXIS2_PLACEMENT_3D ( 'NONE', #138, #104, #180 ) ;
#183 = ADVANCED_FACE ( 'NONE', ( #14 ), #48, .T. ) ;
#184 = CARTESIAN_POINT ( 'NONE',  ( 3.417697656443549121E-15, -1.220779994203334884E-16, 0.9788675134594785332 ) ) ;
#185 = VERTEX_POINT ( 'NONE', #67 ) ;
#186 = DIRECTION ( 'NONE',  ( 0.0000000000000000000, -1.000000000000000000, 0.0000000000000000000 ) ) ;
#187 = AXIS2_PLACEMENT_3D ( 'NONE', #237, #65, #142 ) ;
#188 = DIRECTION ( 'NONE',  ( 3.491481338843133355E-15, -1.224646799147353207E-16, 1.000000000000000000 ) ) ;
#189 = APPROVAL ( #97, 'UNSPECIFIED' ) ;
#190 = DIRECTION ( 'NONE',  ( 1.000000000000000000, 0.0000000000000000000, 0.0000000000000000000 ) ) ;
#191 = PERSON_AND_ORGANIZATION_ROLE ( 'creator' ) ;
#192 = AXIS2_PLACEMENT_3D ( 'NONE', #2, #126, #49 ) ;
#193 = LOCAL_TIME ( 13, 11, 11.00000000000000000, #213 ) ;
#194 = CC_DESIGN_PERSON_AND_ORGANIZATION_ASSIGNMENT ( #37, #36, ( #122 ) ) ;
#195 = CARTESIAN_POINT ( 'NONE',  ( 0.0000000000000000000, 0.0000000000000000000, 0.0000000000000000000 ) ) ;
#196 = SHAPE_DEFINITION_REPRESENTATION ( #103, #38 ) ;
#197 =( GEOMETRIC_REPRESENTATION_CONTEXT ( 3 ) GLOBAL_UNCERTAINTY_ASSIGNED_CONTEXT ( ( #118 ) ) GLOBAL_UNIT_ASSIGNED_CONTEXT ( ( #207, #163, #51 ) ) REPRESENTATION_CONTEXT ( 'NONE', 'WORKASPACE' ) );
#198 = FACE_OUTER_BOUND ( 'NONE', #152, .T. ) ;
#199 = ORIENTED_EDGE ( 'NONE', *, *, #42, .T. ) ;
#200 = FACE_OUTER_BOUND ( 'NONE', #60, .T. ) ;
#201 = ORIENTED_EDGE ( 'NONE', *, *, #13, .T. ) ;
#202 = APPROVAL ( #211, 'UNSPECIFIED' ) ;
#203 = FACE_OUTER_BOUND ( 'NONE', #27, .T. ) ;
#204 = CARTESIAN_POINT ( 'NONE',  ( 3.491481338843133254E-12, -1.224646799147353249E-13, 1000.000000000000000 ) ) ;
#205 = APPLICATION_CONTEXT ( 'configuration controlled 3d designs of mechanical parts and assemblies' ) ;
#206 = EDGE_CURVE ( 'NONE', #127, #127, #58, .T. ) ;
#207 =( LENGTH_UNIT ( ) NAMED_UNIT ( * ) SI_UNIT ( .MILLI., .METRE. ) );
#208 = CARTESIAN_POINT ( 'NONE',  ( 2.544827321732774460E-15, 3.749399456654630763E-34, 0.7288675134594810867 ) ) ;
#209 = EDGE_CURVE ( 'NONE', #16, #16, #20, .T. ) ;
#210 = COORDINATED_UNIVERSAL_TIME_OFFSET ( 1, 0, .AHEAD. ) ;
#211 = APPROVAL_STATUS ( 'not_yet_approved' ) ;
#212 = PERSON_AND_ORGANIZATION ( #155, #72 ) ;
#213 = COORDINATED_UNIVERSAL_TIME_OFFSET ( 1, 0, .AHEAD. ) ;
#214 = AXIS2_PLACEMENT_3D ( 'NONE', #28, #178, #11 ) ;
#215 = AXIS2_PLACEMENT_3D ( 'NONE', #195, #95, #190 ) ;
#216 = DIRECTION ( 'NONE',  ( 0.0000000000000000000, 1.000000000000000000, 0.0000000000000000000 ) ) ;
#217 = EDGE_LOOP ( 'NONE', ( #199 ) ) ;
#218 = CC_DESIGN_PERSON_AND_ORGANIZATION_ASSIGNMENT ( #229, #172, ( #128 ) ) ;
#219 = FACE_OUTER_BOUND ( 'NONE', #81, .T. ) ;
#220 = ORIENTED_EDGE ( 'NONE', *, *, #62, .F. ) ;
#221 = AXIS2_PLACEMENT_3D ( 'NONE', #162, #107, #181 ) ;
#222 = LOCAL_TIME ( 13, 11, 11.00000000000000000, #39 ) ;
#223 = CARTESIAN_POINT ( 'NONE',  ( 2.544827321732774460E-15, -1.084202172485504434E-16, 0.7288675134594810867 ) ) ;
#224 = CYLINDRICAL_SURFACE ( 'NONE', #154, 0.04999999999999999584 ) ;
#225 = CARTESIAN_POINT ( 'NONE',  ( 3.417697656443549121E-15, -0.1169872981077791918, 0.9788675134594785332 ) ) ;
#226 = CARTESIAN_POINT ( 'NONE',  ( 1.047444401652940007E-13, 2.999519565323652267E-33, 30.00000000000000000 ) ) ;
#227 = DATE_AND_TIME ( #24, #124 ) ;
#228 = ADVANCED_FACE ( 'NONE', ( #70, #33 ), #224, .T. ) ;
#229 = PERSON_AND_ORGANIZATION ( #155, #72 ) ;
#230 = ORIENTED_EDGE ( 'NONE', *, *, #106, .F. ) ;
#231 = APPROVAL_STATUS ( 'not_yet_approved' ) ;
#232 = CALENDAR_DATE ( 2021, 10, 11 ) ;
#233 = FACE_OUTER_BOUND ( 'NONE', #179, .T. ) ;
#234 = PRODUCT_DEFINITION_FORMATION_WITH_SPECIFIED_SOURCE ( 'ANY', '', #128, .NOT_KNOWN. ) ;
#235 = EDGE_LOOP ( 'NONE', ( #159 ) ) ;
#236 = EDGE_CURVE ( 'NONE', #88, #88, #240, .T. ) ;
#237 = CARTESIAN_POINT ( 'NONE',  ( 1.007903845425813575E-16, -3.535250795749670560E-18, 0.02886751345948113459 ) ) ;
#238 = EDGE_LOOP ( 'NONE', ( #99 ) ) ;
#239 = ORIENTED_EDGE ( 'NONE', *, *, #206, .T. ) ;
#240 = CIRCLE ( 'NONE', #9, 0.1169872981077790669 ) ;
#241 = CARTESIAN_POINT ( 'NONE',  ( 1.043952920314096936E-13, 0.4999999999999954481, 29.90000000000000213 ) ) ;
#242 = DIRECTION ( 'NONE',  ( 4.275831445896958607E-31, 1.000000000000000000, 1.224646799147353207E-16 ) ) ;
#243 = DIRECTION ( 'NONE',  ( 0.0000000000000000000, 1.000000000000000000, 0.0000000000000000000 ) ) ;
ENDSEC;
END-ISO-10303-21;
