ISO-10303-21;
HEADER;
FILE_DESCRIPTION (( 'STEP AP203' ),
    '1' );
FILE_NAME ('955366.step',
    '2021-11-30T08:32:46',
    ( '' ),
    ( '' ),
    'SwSTEP 2.0',
    'SolidWorks 2019',
    '' );
FILE_SCHEMA (( 'CONFIG_CONTROL_DESIGN' ));
ENDSEC;

DATA;
#1 = DATE_TIME_ROLE ( 'classification_date' ) ;
#2 = CC_DESIGN_PERSON_AND_ORGANIZATION_ASSIGNMENT ( #280, #67, ( #27 ) ) ;
#3 = VERTEX_POINT ( 'NONE', #39 ) ;
#4 = AXIS2_PLACEMENT_3D ( 'NONE', #244, #202, #13 ) ;
#5 = COORDINATED_UNIVERSAL_TIME_OFFSET ( 1, 0, .AHEAD. ) ;
#6 = ORIENTED_EDGE ( 'NONE', *, *, #142, .T. ) ;
#7 = EDGE_LOOP ( 'NONE', ( #239 ) ) ;
#8 = PERSON_AND_ORGANIZATION ( #237, #250 ) ;
#9 = ADVANCED_FACE ( 'NONE', ( #53, #84 ), #243, .T. ) ;
#10 = CIRCLE ( 'NONE', #4, 0.8134999999999998899 ) ;
#11 = COORDINATED_UNIVERSAL_TIME_OFFSET ( 1, 0, .AHEAD. ) ;
#12 = PERSON_AND_ORGANIZATION_ROLE ( 'creator' ) ;
#13 = DIRECTION ( 'NONE',  ( 0.0000000000000000000, 1.000000000000000000, 0.0000000000000000000 ) ) ;
#14 = EDGE_LOOP ( 'NONE', ( #238 ) ) ;
#15 = CC_DESIGN_PERSON_AND_ORGANIZATION_ASSIGNMENT ( #71, #74, ( #196 ) ) ;
#16 =( GEOMETRIC_REPRESENTATION_CONTEXT ( 3 ) GLOBAL_UNCERTAINTY_ASSIGNED_CONTEXT ( ( #58 ) ) GLOBAL_UNIT_ASSIGNED_CONTEXT ( ( #41, #187, #211 ) ) REPRESENTATION_CONTEXT ( 'NONE', 'WORKASPACE' ) );
#17 = AXIS2_PLACEMENT_3D ( 'NONE', #105, #103, #20 ) ;
#18 = DIRECTION ( 'NONE',  ( 0.0000000000000000000, 1.000000000000000000, 0.0000000000000000000 ) ) ;
#19 = CIRCLE ( 'NONE', #125, 1.499999999999996669 ) ;
#20 = DIRECTION ( 'NONE',  ( -4.275831445896958607E-31, -1.000000000000000000, -1.224646799147353207E-16 ) ) ;
#21 = DIRECTION ( 'NONE',  ( 4.275831445896959482E-31, 1.000000000000000000, 1.224646799147353454E-16 ) ) ;
#22 = CARTESIAN_POINT ( 'NONE',  ( 4.276423536147513034E-47, 0.6691624327025946783, 0.0000000000000000000 ) ) ;
#23 = CC_DESIGN_PERSON_AND_ORGANIZATION_ASSIGNMENT ( #186, #301, ( #138 ) ) ;
#24 = AXIS2_PLACEMENT_3D ( 'NONE', #37, #109, #208 ) ;
#25 = EDGE_LOOP ( 'NONE', ( #100 ) ) ;
#26 = DIRECTION ( 'NONE',  ( 0.0000000000000000000, 1.000000000000000000, 0.0000000000000000000 ) ) ;
#27 = SECURITY_CLASSIFICATION ( '', '', #183 ) ;
#28 = CIRCLE ( 'NONE', #303, 0.6691624327025946783 ) ;
#29 = CARTESIAN_POINT ( 'NONE',  ( 8.728703347107829444E-16, -3.061616997868381785E-17, 0.2499999999999998890 ) ) ;
#30 = DIRECTION ( 'NONE',  ( 4.275831445896958607E-31, 1.000000000000000000, 1.224646799147353454E-16 ) ) ;
#31 = EDGE_LOOP ( 'NONE', ( #289 ) ) ;
#32 = DIRECTION ( 'NONE',  ( -4.275831445896958607E-31, -1.000000000000000000, -1.224646799147353207E-16 ) ) ;
#33 = DIRECTION ( 'NONE',  ( -3.491481338843133355E-15, 1.224646799147353207E-16, -1.000000000000000000 ) ) ;
#34 = CONICAL_SURFACE ( 'NONE', #212, 0.8134999999999998899, 0.5235987755983015912 ) ;
#35 = CARTESIAN_POINT ( 'NONE',  ( 7.211755945962014183E-14, -2.529543474054659310E-15, 20.65528996454999344 ) ) ;
#36 = CARTESIAN_POINT ( 'NONE',  ( 2.506627765991136237E-14, -8.792066668447526579E-16, 7.179267258583377220 ) ) ;
#37 = CARTESIAN_POINT ( 'NONE',  ( 0.0000000000000000000, 0.0000000000000000000, 0.0000000000000000000 ) ) ;
#38 = CLOSED_SHELL ( 'NONE', ( #137, #113, #175, #283 ) ) ;
#39 = CARTESIAN_POINT ( 'NONE',  ( 1.735266225405037467E-13, 1.499999999999995559, 49.70000000000000284 ) ) ;
#40 = DIRECTION ( 'NONE',  ( -3.491481338843133355E-15, 1.224646799147353207E-16, -1.000000000000000000 ) ) ;
#41 =( LENGTH_UNIT ( ) NAMED_UNIT ( * ) SI_UNIT ( .MILLI., .METRE. ) );
#42 = CIRCLE ( 'NONE', #162, 0.7403844939755821475 ) ;
#43 = CALENDAR_DATE ( 2021, 30, 11 ) ;
#44 = EDGE_LOOP ( 'NONE', ( #49 ) ) ;
#45 = EDGE_LOOP ( 'NONE', ( #97 ) ) ;
#46 = LOCAL_TIME ( 9, 32, 46.00000000000000000, #11 ) ;
#47 = EDGE_CURVE ( 'NONE', #89, #89, #284, .T. ) ;
#48 = CARTESIAN_POINT ( 'NONE',  ( 2.444036937190193349E-14, 6.100272915977091643E-33, 7.000000000000000000 ) ) ;
#49 = ORIENTED_EDGE ( 'NONE', *, *, #93, .F. ) ;
#50 = PERSON_AND_ORGANIZATION ( #237, #250 ) ;
#51 = FACE_OUTER_BOUND ( 'NONE', #70, .T. ) ;
#52 = AXIS2_PLACEMENT_3D ( 'NONE', #149, #265, #18 ) ;
#53 = FACE_OUTER_BOUND ( 'NONE', #141, .T. ) ;
#54 = FACE_OUTER_BOUND ( 'NONE', #115, .T. ) ;
#55 = CARTESIAN_POINT ( 'NONE',  ( 5.707628016518648493E-14, -2.001966415627278844E-15, 16.34729635533384595 ) ) ;
#56 = AXIS2_PLACEMENT_3D ( 'NONE', #197, #292, #21 ) ;
#57 = CYLINDRICAL_SURFACE ( 'NONE', #56, 0.7099999999999999645 ) ;
#58 = UNCERTAINTY_MEASURE_WITH_UNIT (LENGTH_MEASURE( 1.000000000000000082E-05 ), #41, 'distance_accuracy_value', 'NONE');
#59 = DIRECTION ( 'NONE',  ( 4.275831445896958607E-31, 1.000000000000000000, 1.224646799147353207E-16 ) ) ;
#60 = ADVANCED_BREP_SHAPE_REPRESENTATION ( '955366', ( #270, #167, #24 ), #16 ) ;
#61 = APPLICATION_PROTOCOL_DEFINITION ( 'international standard', 'config_control_design', 1994, #275 ) ;
#62 = VERTEX_POINT ( 'NONE', #213 ) ;
#63 = VERTEX_POINT ( 'NONE', #185 ) ;
#64 = FACE_OUTER_BOUND ( 'NONE', #44, .T. ) ;
#65 = CALENDAR_DATE ( 2021, 30, 11 ) ;
#66 = CARTESIAN_POINT ( 'NONE',  ( 0.0000000000000000000, 0.0000000000000000000, 0.0000000000000000000 ) ) ;
#67 = PERSON_AND_ORGANIZATION_ROLE ( 'classification_officer' ) ;
#68 = LOCAL_TIME ( 9, 32, 46.00000000000000000, #287 ) ;
#69 = CLOSED_SHELL ( 'NONE', ( #98, #248, #140, #87, #288, #296, #9, #252 ) ) ;
#70 = EDGE_LOOP ( 'NONE', ( #188 ) ) ;
#71 = PERSON_AND_ORGANIZATION ( #237, #250 ) ;
#72 = EDGE_LOOP ( 'NONE', ( #95 ) ) ;
#73 = APPROVAL ( #168, 'UNSPECIFIED' ) ;
#74 = PERSON_AND_ORGANIZATION_ROLE ( 'design_owner' ) ;
#75 = ORIENTED_EDGE ( 'NONE', *, *, #274, .F. ) ;
#76 = DATE_AND_TIME ( #43, #46 ) ;
#77 = EDGE_LOOP ( 'NONE', ( #286 ) ) ;
#78 = FACE_OUTER_BOUND ( 'NONE', #190, .T. ) ;
#79 = DIRECTION ( 'NONE',  ( -3.491481338843133355E-15, 1.224646799147353207E-16, -1.000000000000000000 ) ) ;
#80 = CIRCLE ( 'NONE', #182, 0.7099999999999999645 ) ;
#81 = DIRECTION ( 'NONE',  ( -3.491481338843133355E-15, 1.224646799147353207E-16, -1.000000000000000000 ) ) ;
#82 = DIRECTION ( 'NONE',  ( 0.0000000000000000000, 1.000000000000000000, 0.0000000000000000000 ) ) ;
#83 = FACE_BOUND ( 'NONE', #192, .T. ) ;
#84 = FACE_BOUND ( 'NONE', #143, .T. ) ;
#85 = APPROVAL_ROLE ( '' ) ;
#86 = DIRECTION ( 'NONE',  ( -4.275831445896958607E-31, -1.000000000000000000, -1.224646799147353207E-16 ) ) ;
#87 = ADVANCED_FACE ( 'NONE', ( #126, #176 ), #144, .F. ) ;
#88 = DATE_AND_TIME ( #110, #198 ) ;
#89 = VERTEX_POINT ( 'NONE', #295 ) ;
#90 = CONICAL_SURFACE ( 'NONE', #267, 0.8134999999999990017, 0.5235987755982923764 ) ;
#91 = VERTEX_POINT ( 'NONE', #255 ) ;
#92 = CC_DESIGN_DATE_AND_TIME_ASSIGNMENT ( #88, #1, ( #27 ) ) ;
#93 = EDGE_CURVE ( 'NONE', #63, #63, #19, .T. ) ;
#94 = CARTESIAN_POINT ( 'NONE',  ( 2.444036937190193349E-14, 0.8134999999999990017, 7.000000000000000000 ) ) ;
#95 = ORIENTED_EDGE ( 'NONE', *, *, #93, .T. ) ;
#96 = APPROVAL_DATE_TIME ( #172, #171 ) ;
#97 = ORIENTED_EDGE ( 'NONE', *, *, #169, .F. ) ;
#98 = ADVANCED_FACE ( 'NONE', ( #231 ), #177, .F. ) ;
#99 = EDGE_LOOP ( 'NONE', ( #221 ) ) ;
#100 = ORIENTED_EDGE ( 'NONE', *, *, #146, .F. ) ;
#101 = EDGE_LOOP ( 'NONE', ( #6 ) ) ;
#102 = CARTESIAN_POINT ( 'NONE',  ( 8.728703347107829444E-16, -3.061616997868381785E-17, 0.2499999999999998890 ) ) ;
#103 = DIRECTION ( 'NONE',  ( 3.491481338843133355E-15, -1.224646799147353207E-16, 1.000000000000000000 ) ) ;
#104 = PRODUCT_DEFINITION ( 'UNKNOWN', '', #138, #154 ) ;
#105 = CARTESIAN_POINT ( 'NONE',  ( 2.444036937190193349E-14, 6.100272915977091643E-33, 7.000000000000000000 ) ) ;
#106 = DIRECTION ( 'NONE',  ( -3.491481338843133355E-15, 1.224646799147353207E-16, -1.000000000000000000 ) ) ;
#107 = PERSON_AND_ORGANIZATION ( #237, #250 ) ;
#108 = EDGE_CURVE ( 'NONE', #279, #279, #42, .T. ) ;
#109 = DIRECTION ( 'NONE',  ( 0.0000000000000000000, 0.0000000000000000000, 1.000000000000000000 ) ) ;
#110 = CALENDAR_DATE ( 2021, 30, 11 ) ;
#111 = VERTEX_POINT ( 'NONE', #94 ) ;
#112 = DIRECTION ( 'NONE',  ( 4.275831445896958607E-31, 1.000000000000000000, 1.224646799147353454E-16 ) ) ;
#113 = ADVANCED_FACE ( 'NONE', ( #83, #51 ), #90, .T. ) ;
#114 = APPROVAL ( #158, 'UNSPECIFIED' ) ;
#115 = EDGE_LOOP ( 'NONE', ( #75 ) ) ;
#116 = DIRECTION ( 'NONE',  ( -3.491481338843133355E-15, 1.224646799147353207E-16, -1.000000000000000000 ) ) ;
#117 = AXIS2_PLACEMENT_3D ( 'NONE', #281, #145, #26 ) ;
#118 = CALENDAR_DATE ( 2021, 30, 11 ) ;
#119 = DIRECTION ( 'NONE',  ( -3.491481338843133355E-15, 1.224646799147353207E-16, -1.000000000000000000 ) ) ;
#120 = APPLICATION_PROTOCOL_DEFINITION ( 'international standard', 'config_control_design', 1994, #290 ) ;
#121 = FACE_BOUND ( 'NONE', #282, .T. ) ;
#122 = DIRECTION ( 'NONE',  ( 3.491481338843133355E-15, -1.224646799147353207E-16, 1.000000000000000000 ) ) ;
#123 = DATE_TIME_ROLE ( 'creation_date' ) ;
#124 = CC_DESIGN_PERSON_AND_ORGANIZATION_ASSIGNMENT ( #107, #210, ( #138 ) ) ;
#125 = AXIS2_PLACEMENT_3D ( 'NONE', #35, #293, #82 ) ;
#126 = FACE_OUTER_BOUND ( 'NONE', #45, .T. ) ;
#127 = DIRECTION ( 'NONE',  ( 0.0000000000000000000, 1.000000000000000000, 0.0000000000000000000 ) ) ;
#128 = AXIS2_PLACEMENT_3D ( 'NONE', #262, #297, #191 ) ;
#129 = CC_DESIGN_PERSON_AND_ORGANIZATION_ASSIGNMENT ( #8, #12, ( #104 ) ) ;
#130 = FACE_OUTER_BOUND ( 'NONE', #7, .T. ) ;
#131 = PLANE ( 'NONE',  #232 ) ;
#132 = ORIENTED_EDGE ( 'NONE', *, *, #230, .F. ) ;
#133 = APPROVAL_DATE_TIME ( #156, #114 ) ;
#134 = VERTEX_POINT ( 'NONE', #161 ) ;
#135 = DIRECTION ( 'NONE',  ( -3.491481338843133355E-15, 1.224646799147353207E-16, -1.000000000000000000 ) ) ;
#136 = DIRECTION ( 'NONE',  ( 0.0000000000000000000, 1.000000000000000000, 0.0000000000000000000 ) ) ;
#137 = ADVANCED_FACE ( 'NONE', ( #242 ), #131, .F. ) ;
#138 = PRODUCT_DEFINITION_FORMATION_WITH_SPECIFIED_SOURCE ( 'ANY', '', #196, .NOT_KNOWN. ) ;
#139 = CARTESIAN_POINT ( 'NONE',  ( 5.586370142149013368E-14, 0.7099999999999979661, 16.00000000000000000 ) ) ;
#140 = ADVANCED_FACE ( 'NONE', ( #271, #223 ), #57, .T. ) ;
#141 = EDGE_LOOP ( 'NONE', ( #257 ) ) ;
#142 = EDGE_CURVE ( 'NONE', #111, #111, #10, .T. ) ;
#143 = EDGE_LOOP ( 'NONE', ( #147 ) ) ;
#144 = TOROIDAL_SURFACE ( 'NONE', #254, 2.709999999999999964, 2.000000000000000000 ) ;
#145 = DIRECTION ( 'NONE',  ( -3.491481338843133355E-15, 1.224646799147353207E-16, -1.000000000000000000 ) ) ;
#146 = EDGE_CURVE ( 'NONE', #62, #62, #218, .T. ) ;
#147 = ORIENTED_EDGE ( 'NONE', *, *, #184, .T. ) ;
#148 = CC_DESIGN_APPROVAL ( #114, ( #27 ) ) ;
#149 = CARTESIAN_POINT ( 'NONE',  ( 1.745740669421566678E-13, -6.123233995736766085E-15, 50.00000000000000000 ) ) ;
#150 = FACE_OUTER_BOUND ( 'NONE', #101, .T. ) ;
#151 = PRODUCT_RELATED_PRODUCT_CATEGORY ( 'detail', '', ( #196 ) ) ;
#152 = DIRECTION ( 'NONE',  ( 3.491481338843133355E-15, -1.224646799147353207E-16, 1.000000000000000000 ) ) ;
#153 = AXIS2_PLACEMENT_3D ( 'NONE', #36, #294, #155 ) ;
#154 = DESIGN_CONTEXT ( 'detailed design', #290, 'design' ) ;
#155 = DIRECTION ( 'NONE',  ( 0.0000000000000000000, 1.000000000000000000, 0.0000000000000000000 ) ) ;
#156 = DATE_AND_TIME ( #65, #193 ) ;
#157 = CONICAL_SURFACE ( 'NONE', #277, 1.499999999999996669, 0.1745329251994258979 ) ;
#158 = APPROVAL_STATUS ( 'not_yet_approved' ) ;
#159 = AXIS2_PLACEMENT_3D ( 'NONE', #206, #273, #59 ) ;
#160 = DIRECTION ( 'NONE',  ( 3.491481338843133355E-15, -1.224646799147353207E-16, 1.000000000000000000 ) ) ;
#161 = CARTESIAN_POINT ( 'NONE',  ( 8.728703347107833388E-16, 0.8134999999999990017, 0.2500000000000000000 ) ) ;
#162 = AXIS2_PLACEMENT_3D ( 'NONE', #55, #106, #269 ) ;
#163 = DATE_AND_TIME ( #285, #68 ) ;
#164 = ORIENTED_EDGE ( 'NONE', *, *, #47, .T. ) ;
#165 = APPROVAL_PERSON_ORGANIZATION ( #50, #171, #217 ) ;
#166 = AXIS2_PLACEMENT_3D ( 'NONE', #228, #263, #258 ) ;
#167 = MANIFOLD_SOLID_BREP ( 'Corps-Déplacer/Copier1[2]', #38 ) ;
#168 = APPROVAL_STATUS ( 'not_yet_approved' ) ;
#169 = EDGE_CURVE ( 'NONE', #215, #215, #80, .T. ) ;
#170 = ORIENTED_EDGE ( 'NONE', *, *, #146, .T. ) ;
#171 = APPROVAL ( #256, 'UNSPECIFIED' ) ;
#172 = DATE_AND_TIME ( #118, #236 ) ;
#173 = EDGE_LOOP ( 'NONE', ( #241 ) ) ;
#174 = CARTESIAN_POINT ( 'NONE',  ( 2.444036937190193349E-14, -8.572527594031473190E-16, 7.000000000000000000 ) ) ;
#175 = ADVANCED_FACE ( 'NONE', ( #54, #150 ), #179, .T. ) ;
#176 = FACE_OUTER_BOUND ( 'NONE', #99, .T. ) ;
#177 = PLANE ( 'NONE',  #17 ) ;
#178 = DIRECTION ( 'NONE',  ( 3.491481338843133355E-15, -1.224646799147353207E-16, 1.000000000000000000 ) ) ;
#179 = CYLINDRICAL_SURFACE ( 'NONE', #159, 0.8134999999999994458 ) ;
#180 = FACE_OUTER_BOUND ( 'NONE', #72, .T. ) ;
#181 = CC_DESIGN_SECURITY_CLASSIFICATION ( #27, ( #138 ) ) ;
#182 = AXIS2_PLACEMENT_3D ( 'NONE', #224, #81, #268 ) ;
#183 = SECURITY_CLASSIFICATION_LEVEL ( 'unclassified' ) ;
#184 = EDGE_CURVE ( 'NONE', #91, #91, #259, .T. ) ;
#185 = CARTESIAN_POINT ( 'NONE',  ( 7.211755945962014183E-14, 1.499999999999994005, 20.65528996454999344 ) ) ;
#186 = PERSON_AND_ORGANIZATION ( #237, #250 ) ;
#187 =( NAMED_UNIT ( * ) PLANE_ANGLE_UNIT ( ) SI_UNIT ( $, .RADIAN. ) );
#188 = ORIENTED_EDGE ( 'NONE', *, *, #274, .T. ) ;
#189 = PERSON_AND_ORGANIZATION ( #237, #250 ) ;
#190 = EDGE_LOOP ( 'NONE', ( #219 ) ) ;
#191 = DIRECTION ( 'NONE',  ( 0.0000000000000000000, 1.000000000000000000, 0.0000000000000000000 ) ) ;
#192 = EDGE_LOOP ( 'NONE', ( #132 ) ) ;
#193 = LOCAL_TIME ( 9, 32, 46.00000000000000000, #278 ) ;
#194 = CIRCLE ( 'NONE', #117, 1.500000000000001554 ) ;
#195 = ORIENTED_EDGE ( 'NONE', *, *, #230, .T. ) ;
#196 = PRODUCT ( '955366', '955366', '', ( #235 ) ) ;
#197 = CARTESIAN_POINT ( 'NONE',  ( 0.0000000000000000000, 0.0000000000000000000, 0.0000000000000000000 ) ) ;
#198 = LOCAL_TIME ( 9, 32, 46.00000000000000000, #204 ) ;
#199 = PRODUCT_DEFINITION_SHAPE ( 'NONE', 'NONE',  #104 ) ;
#200 = DIRECTION ( 'NONE',  ( 4.275831445896958607E-31, 1.000000000000000000, 1.224646799147353207E-16 ) ) ;
#201 = EDGE_CURVE ( 'NONE', #3, #3, #194, .T. ) ;
#202 = DIRECTION ( 'NONE',  ( -3.491481338843133355E-15, 1.224646799147353207E-16, -1.000000000000000000 ) ) ;
#203 = CIRCLE ( 'NONE', #251, 0.8134999999999990017 ) ;
#204 = COORDINATED_UNIVERSAL_TIME_OFFSET ( 1, 0, .AHEAD. ) ;
#205 = PLANE ( 'NONE',  #166 ) ;
#206 = CARTESIAN_POINT ( 'NONE',  ( 0.0000000000000000000, 0.0000000000000000000, 0.0000000000000000000 ) ) ;
#207 = DIRECTION ( 'NONE',  ( 0.0000000000000000000, -1.000000000000000000, 0.0000000000000000000 ) ) ;
#208 = DIRECTION ( 'NONE',  ( 1.000000000000000000, 0.0000000000000000000, 0.0000000000000000000 ) ) ;
#209 = CC_DESIGN_DATE_AND_TIME_ASSIGNMENT ( #163, #123, ( #104 ) ) ;
#210 = PERSON_AND_ORGANIZATION_ROLE ( 'design_supplier' ) ;
#211 =( NAMED_UNIT ( * ) SI_UNIT ( $, .STERADIAN. ) SOLID_ANGLE_UNIT ( ) );
#212 = AXIS2_PLACEMENT_3D ( 'NONE', #220, #40, #136 ) ;
#213 = CARTESIAN_POINT ( 'NONE',  ( 2.444036937190193349E-14, 0.8134999999999990017, 7.000000000000000000 ) ) ;
#214 = CARTESIAN_POINT ( 'NONE',  ( 7.211755945962014183E-14, -2.529543474054659310E-15, 20.65528996454999344 ) ) ;
#215 = VERTEX_POINT ( 'NONE', #139 ) ;
#216 = CC_DESIGN_APPROVAL ( #171, ( #104 ) ) ;
#217 = APPROVAL_ROLE ( '' ) ;
#218 = CIRCLE ( 'NONE', #227, 0.8134999999999998899 ) ;
#219 = ORIENTED_EDGE ( 'NONE', *, *, #142, .F. ) ;
#220 = CARTESIAN_POINT ( 'NONE',  ( 2.444036937190193349E-14, -8.572527594031473190E-16, 7.000000000000000000 ) ) ;
#221 = ORIENTED_EDGE ( 'NONE', *, *, #108, .T. ) ;
#222 = FACE_OUTER_BOUND ( 'NONE', #25, .T. ) ;
#223 = FACE_OUTER_BOUND ( 'NONE', #77, .T. ) ;
#224 = CARTESIAN_POINT ( 'NONE',  ( 5.586370142149013368E-14, -1.959434878635765131E-15, 16.00000000000000000 ) ) ;
#225 = EDGE_LOOP ( 'NONE', ( #195 ) ) ;
#226 = CC_DESIGN_APPROVAL ( #73, ( #138 ) ) ;
#227 = AXIS2_PLACEMENT_3D ( 'NONE', #174, #33, #127 ) ;
#228 = CARTESIAN_POINT ( 'NONE',  ( 1.745740669421566678E-13, 8.998558695971067645E-33, 50.00000000000000000 ) ) ;
#229 = CARTESIAN_POINT ( 'NONE',  ( -1.430612886081330678E-31, 5.017914523177616831E-33, -4.097438156594444097E-17 ) ) ;
#230 = EDGE_CURVE ( 'NONE', #276, #276, #28, .T. ) ;
#231 = FACE_OUTER_BOUND ( 'NONE', #266, .T. ) ;
#232 = AXIS2_PLACEMENT_3D ( 'NONE', #229, #178, #32 ) ;
#233 = SHAPE_DEFINITION_REPRESENTATION ( #199, #60 ) ;
#234 = FACE_OUTER_BOUND ( 'NONE', #173, .T. ) ;
#235 = MECHANICAL_CONTEXT ( 'NONE', #275, 'mechanical' ) ;
#236 = LOCAL_TIME ( 9, 32, 46.00000000000000000, #5 ) ;
#237 = PERSON ( 'UNSPECIFIED', 'UNSPECIFIED', 'UNSPECIFIED', ('UNSPECIFIED'), ('UNSPECIFIED'), ('UNSPECIFIED') ) ;
#238 = ORIENTED_EDGE ( 'NONE', *, *, #169, .T. ) ;
#239 = ORIENTED_EDGE ( 'NONE', *, *, #184, .F. ) ;
#240 = CARTESIAN_POINT ( 'NONE',  ( -2.861225772162661356E-31, 1.003582904635523366E-32, -8.194876313188888195E-17 ) ) ;
#241 = ORIENTED_EDGE ( 'NONE', *, *, #201, .T. ) ;
#242 = FACE_OUTER_BOUND ( 'NONE', #225, .T. ) ;
#243 = CONICAL_SURFACE ( 'NONE', #52, 1.200000000000001732, 0.7853981633974453924 ) ;
#244 = CARTESIAN_POINT ( 'NONE',  ( 2.444036937190193349E-14, -8.572527594031473190E-16, 7.000000000000000000 ) ) ;
#245 = CARTESIAN_POINT ( 'NONE',  ( 5.586370142149013368E-14, -2.168404344971008868E-15, 16.00000000000000000 ) ) ;
#246 = DIRECTION ( 'NONE',  ( -4.734923034756578046E-31, -1.000000000000000000, -1.332762350934856435E-16 ) ) ;
#247 = AXIS2_PLACEMENT_3D ( 'NONE', #48, #122, #86 ) ;
#248 = ADVANCED_FACE ( 'NONE', ( #121, #222 ), #34, .T. ) ;
#249 = CARTESIAN_POINT ( 'NONE',  ( 5.707628016518648493E-14, 0.7403844939755802601, 16.34729635533384595 ) ) ;
#250 = ORGANIZATION ( 'UNSPECIFIED', 'UNSPECIFIED', '' ) ;
#251 = AXIS2_PLACEMENT_3D ( 'NONE', #29, #119, #291 ) ;
#252 = ADVANCED_FACE ( 'NONE', ( #130 ), #205, .F. ) ;
#253 = APPROVAL_PERSON_ORGANIZATION ( #189, #73, #261 ) ;
#254 = AXIS2_PLACEMENT_3D ( 'NONE', #245, #79, #200 ) ;
#255 = CARTESIAN_POINT ( 'NONE',  ( 1.745740669421566678E-13, 1.199999999999995515, 50.00000000000000000 ) ) ;
#256 = APPROVAL_STATUS ( 'not_yet_approved' ) ;
#257 = ORIENTED_EDGE ( 'NONE', *, *, #201, .F. ) ;
#258 = DIRECTION ( 'NONE',  ( 4.275831445896958607E-31, 1.000000000000000000, 1.224646799147353207E-16 ) ) ;
#259 = CIRCLE ( 'NONE', #128, 1.200000000000001732 ) ;
#260 = PLANE ( 'NONE',  #247 ) ;
#261 = APPROVAL_ROLE ( '' ) ;
#262 = CARTESIAN_POINT ( 'NONE',  ( 1.745740669421566678E-13, -6.123233995736766085E-15, 50.00000000000000000 ) ) ;
#263 = DIRECTION ( 'NONE',  ( -3.491481338843133355E-15, 1.224646799147353207E-16, -1.000000000000000000 ) ) ;
#264 = APPROVAL_DATE_TIME ( #76, #73 ) ;
#265 = DIRECTION ( 'NONE',  ( -3.491481338843133355E-15, 1.224646799147353207E-16, -1.000000000000000000 ) ) ;
#266 = EDGE_LOOP ( 'NONE', ( #170 ) ) ;
#267 = AXIS2_PLACEMENT_3D ( 'NONE', #102, #152, #246 ) ;
#268 = DIRECTION ( 'NONE',  ( 0.0000000000000000000, 1.000000000000000000, 0.0000000000000000000 ) ) ;
#269 = DIRECTION ( 'NONE',  ( 0.0000000000000000000, 1.000000000000000000, 0.0000000000000000000 ) ) ;
#270 = MANIFOLD_SOLID_BREP ( 'Corps-Déplacer/Copier1[1]', #69 ) ;
#271 = FACE_OUTER_BOUND ( 'NONE', #14, .T. ) ;
#272 = APPROVAL_PERSON_ORGANIZATION ( #298, #114, #85 ) ;
#273 = DIRECTION ( 'NONE',  ( -3.491481338843133355E-15, 1.224646799147353207E-16, -1.000000000000000000 ) ) ;
#274 = EDGE_CURVE ( 'NONE', #134, #134, #203, .T. ) ;
#275 = APPLICATION_CONTEXT ( 'configuration controlled 3d designs of mechanical parts and assemblies' ) ;
#276 = VERTEX_POINT ( 'NONE', #22 ) ;
#277 = AXIS2_PLACEMENT_3D ( 'NONE', #214, #160, #207 ) ;
#278 = COORDINATED_UNIVERSAL_TIME_OFFSET ( 1, 0, .AHEAD. ) ;
#279 = VERTEX_POINT ( 'NONE', #249 ) ;
#280 = PERSON_AND_ORGANIZATION ( #237, #250 ) ;
#281 = CARTESIAN_POINT ( 'NONE',  ( 1.735266225405037467E-13, -6.086494591762345225E-15, 49.70000000000000284 ) ) ;
#282 = EDGE_LOOP ( 'NONE', ( #164 ) ) ;
#283 = ADVANCED_FACE ( 'NONE', ( #78 ), #260, .T. ) ;
#284 = CIRCLE ( 'NONE', #153, 0.7100000000000000755 ) ;
#285 = CALENDAR_DATE ( 2021, 30, 11 ) ;
#286 = ORIENTED_EDGE ( 'NONE', *, *, #47, .F. ) ;
#287 = COORDINATED_UNIVERSAL_TIME_OFFSET ( 1, 0, .AHEAD. ) ;
#288 = ADVANCED_FACE ( 'NONE', ( #300, #180 ), #157, .T. ) ;
#289 = ORIENTED_EDGE ( 'NONE', *, *, #108, .F. ) ;
#290 = APPLICATION_CONTEXT ( 'configuration controlled 3d designs of mechanical parts and assemblies' ) ;
#291 = DIRECTION ( 'NONE',  ( 4.734923034756578046E-31, 1.000000000000000000, 1.332762350934856435E-16 ) ) ;
#292 = DIRECTION ( 'NONE',  ( -3.491481338843133355E-15, 1.224646799147353207E-16, -1.000000000000000000 ) ) ;
#293 = DIRECTION ( 'NONE',  ( -3.491481338843133355E-15, 1.224646799147353207E-16, -1.000000000000000000 ) ) ;
#294 = DIRECTION ( 'NONE',  ( -3.491481338843133355E-15, 1.224646799147353207E-16, -1.000000000000000000 ) ) ;
#295 = CARTESIAN_POINT ( 'NONE',  ( 2.506627765991136237E-14, 0.7099999999999992983, 7.179267258583377220 ) ) ;
#296 = ADVANCED_FACE ( 'NONE', ( #64, #234 ), #299, .T. ) ;
#297 = DIRECTION ( 'NONE',  ( -3.491481338843133355E-15, 1.224646799147353207E-16, -1.000000000000000000 ) ) ;
#298 = PERSON_AND_ORGANIZATION ( #237, #250 ) ;
#299 = CYLINDRICAL_SURFACE ( 'NONE', #302, 1.499999999999999112 ) ;
#300 = FACE_BOUND ( 'NONE', #31, .T. ) ;
#301 = PERSON_AND_ORGANIZATION_ROLE ( 'creator' ) ;
#302 = AXIS2_PLACEMENT_3D ( 'NONE', #66, #135, #112 ) ;
#303 = AXIS2_PLACEMENT_3D ( 'NONE', #240, #116, #30 ) ;
ENDSEC;
END-ISO-10303-21;
