ISO-10303-21;
HEADER;
FILE_DESCRIPTION (( 'STEP AP203' ),
    '1' );
FILE_NAME ('955178.step',
    '2021-11-17T08:27:00',
    ( '' ),
    ( '' ),
    'SwSTEP 2.0',
    'SolidWorks 2019',
    '' );
FILE_SCHEMA (( 'CONFIG_CONTROL_DESIGN' ));
ENDSEC;

DATA;
#1 = PERSON_AND_ORGANIZATION ( #38, #153 ) ;
#2 = APPROVAL_DATE_TIME ( #17, #134 ) ;
#3 = EDGE_LOOP ( 'NONE', ( #220 ) ) ;
#4 = DIRECTION ( 'NONE',  ( 4.275831445896958607E-31, 1.000000000000000000, 1.224646799147353207E-16 ) ) ;
#5 = AXIS2_PLACEMENT_3D ( 'NONE', #190, #24, #40 ) ;
#6 = PLANE ( 'NONE',  #34 ) ;
#7 = ORIENTED_EDGE ( 'NONE', *, *, #18, .T. ) ;
#8 = DIRECTION ( 'NONE',  ( 1.000000000000000000, 0.0000000000000000000, -3.491481338843133355E-15 ) ) ;
#9 = AXIS2_PLACEMENT_3D ( 'NONE', #30, #106, #183 ) ;
#10 = CIRCLE ( 'NONE', #219, 2.500000000000000000 ) ;
#11 = EDGE_LOOP ( 'NONE', ( #154 ) ) ;
#12 = APPLICATION_PROTOCOL_DEFINITION ( 'international standard', 'config_control_design', 1994, #89 ) ;
#13 = EDGE_LOOP ( 'NONE', ( #233 ) ) ;
#14 = APPROVAL_PERSON_ORGANIZATION ( #202, #134, #157 ) ;
#15 = CARTESIAN_POINT ( 'NONE',  ( 1.990144363140586139E-13, 2.499999999999992895, 57.00000000000000000 ) ) ;
#16 = ORIENTED_EDGE ( 'NONE', *, *, #127, .F. ) ;
#17 = DATE_AND_TIME ( #116, #166 ) ;
#18 = EDGE_CURVE ( 'NONE', #128, #128, #180, .T. ) ;
#19 = COORDINATED_UNIVERSAL_TIME_OFFSET ( 1, 0, .AHEAD. ) ;
#20 = ORIENTED_EDGE ( 'NONE', *, *, #205, .F. ) ;
#21 = APPROVAL_STATUS ( 'not_yet_approved' ) ;
#22 = PLANE ( 'NONE',  #150 ) ;
#23 = CARTESIAN_POINT ( 'NONE',  ( 2.793185071074506684E-14, 2.249639673992785317E-32, 8.000000000000000000 ) ) ;
#24 = DIRECTION ( 'NONE',  ( -3.491481338843133355E-15, 1.224646799147353207E-16, -1.000000000000000000 ) ) ;
#25 = PRODUCT_DEFINITION ( 'UNKNOWN', '', #105, #144 ) ;
#26 = CARTESIAN_POINT ( 'NONE',  ( 2.793185071074506684E-14, 2.249639673992785317E-32, 8.000000000000000000 ) ) ;
#27 = CARTESIAN_POINT ( 'NONE',  ( 6.982962677686246003E-16, -2.435834570415083531E-17, 0.1999999999999994005 ) ) ;
#28 = PRODUCT ( '955178', '955178', '', ( #112 ) ) ;
#29 = AXIS2_PLACEMENT_3D ( 'NONE', #138, #211, #39 ) ;
#30 = CARTESIAN_POINT ( 'NONE',  ( 0.0000000000000000000, 0.0000000000000000000, 0.0000000000000000000 ) ) ;
#31 = CIRCLE ( 'NONE', #169, 3.000000000000000000 ) ;
#32 = EDGE_LOOP ( 'NONE', ( #20 ) ) ;
#33 = APPROVAL_STATUS ( 'not_yet_approved' ) ;
#34 = AXIS2_PLACEMENT_3D ( 'NONE', #207, #161, #4 ) ;
#35 = DIRECTION ( 'NONE',  ( 1.000000000000000000, 0.0000000000000000000, -3.469446951953619316E-15 ) ) ;
#36 = CC_DESIGN_APPROVAL ( #134, ( #25 ) ) ;
#37 = PERSON_AND_ORGANIZATION ( #38, #153 ) ;
#38 = PERSON ( 'UNSPECIFIED', 'UNSPECIFIED', 'UNSPECIFIED', ('UNSPECIFIED'), ('UNSPECIFIED'), ('UNSPECIFIED') ) ;
#39 = DIRECTION ( 'NONE',  ( 0.0000000000000000000, 1.000000000000000000, 0.0000000000000000000 ) ) ;
#40 = DIRECTION ( 'NONE',  ( 4.275831445896959482E-31, 1.000000000000000000, 1.224646799147353207E-16 ) ) ;
#41 = FACE_OUTER_BOUND ( 'NONE', #143, .T. ) ;
#42 = PLANE ( 'NONE',  #52 ) ;
#43 = CARTESIAN_POINT ( 'NONE',  ( 1.500000000000025757, 0.0000000000000000000, 7.999999999999992895 ) ) ;
#44 = SECURITY_CLASSIFICATION ( '', '', #227 ) ;
#45 = FACE_OUTER_BOUND ( 'NONE', #137, .T. ) ;
#46 =( GEOMETRIC_REPRESENTATION_CONTEXT ( 3 ) GLOBAL_UNCERTAINTY_ASSIGNED_CONTEXT ( ( #101 ) ) GLOBAL_UNIT_ASSIGNED_CONTEXT ( ( #50, #199, #65 ) ) REPRESENTATION_CONTEXT ( 'NONE', 'WORKASPACE' ) );
#47 = DIRECTION ( 'NONE',  ( 3.491481338843133355E-15, -0.0000000000000000000, 1.000000000000000000 ) ) ;
#48 = EDGE_LOOP ( 'NONE', ( #96 ) ) ;
#49 = MANIFOLD_SOLID_BREP ( 'Corps-Déplacer/Copier1[2]', #75 ) ;
#50 =( LENGTH_UNIT ( ) NAMED_UNIT ( * ) SI_UNIT ( .MILLI., .METRE. ) );
#51 = EDGE_LOOP ( 'NONE', ( #133 ) ) ;
#52 = AXIS2_PLACEMENT_3D ( 'NONE', #26, #57, #102 ) ;
#53 = COORDINATED_UNIVERSAL_TIME_OFFSET ( 1, 0, .AHEAD. ) ;
#54 = SHAPE_DEFINITION_REPRESENTATION ( #61, #149 ) ;
#55 = FACE_OUTER_BOUND ( 'NONE', #79, .T. ) ;
#56 = AXIS2_PLACEMENT_3D ( 'NONE', #23, #97, #155 ) ;
#57 = DIRECTION ( 'NONE',  ( 3.491481338843133355E-15, -1.224646799147353207E-16, 1.000000000000000000 ) ) ;
#58 = ADVANCED_FACE ( 'NONE', ( #120, #175 ), #177, .T. ) ;
#59 = EDGE_LOOP ( 'NONE', ( #7 ) ) ;
#60 = FACE_BOUND ( 'NONE', #222, .T. ) ;
#61 = PRODUCT_DEFINITION_SHAPE ( 'NONE', 'NONE',  #25 ) ;
#62 = TOROIDAL_SURFACE ( 'NONE', #200, 9.499999999999998224, 8.000000000000000000 ) ;
#63 = CARTESIAN_POINT ( 'NONE',  ( -5.528036115623621924E-31, 1.928319267689511269E-32, -1.583292470769807977E-16 ) ) ;
#64 = VERTEX_POINT ( 'NONE', #218 ) ;
#65 =( NAMED_UNIT ( * ) SI_UNIT ( $, .STERADIAN. ) SOLID_ANGLE_UNIT ( ) );
#66 = PERSON_AND_ORGANIZATION ( #38, #153 ) ;
#67 = PERSON_AND_ORGANIZATION_ROLE ( 'creator' ) ;
#68 = EDGE_LOOP ( 'NONE', ( #170 ) ) ;
#69 = APPROVAL_ROLE ( '' ) ;
#70 = APPROVAL ( #186, 'UNSPECIFIED' ) ;
#71 = COORDINATED_UNIVERSAL_TIME_OFFSET ( 1, 0, .AHEAD. ) ;
#72 = FACE_OUTER_BOUND ( 'NONE', #108, .T. ) ;
#73 = DIRECTION ( 'NONE',  ( -3.491481338843133355E-15, 1.224646799147353207E-16, -1.000000000000000000 ) ) ;
#74 = CC_DESIGN_APPROVAL ( #70, ( #105 ) ) ;
#75 = CLOSED_SHELL ( 'NONE', ( #58, #181, #118, #90 ) ) ;
#76 = CARTESIAN_POINT ( 'NONE',  ( -6.413747168845438786E-31, 0.0000000000000000000, -1.836970198721029934E-16 ) ) ;
#77 = ADVANCED_FACE ( 'NONE', ( #213, #41 ), #142, .T. ) ;
#78 = DIRECTION ( 'NONE',  ( 3.491481338843133355E-15, -1.217917285207545432E-16, 1.000000000000000000 ) ) ;
#79 = EDGE_LOOP ( 'NONE', ( #114 ) ) ;
#80 = CC_DESIGN_PERSON_AND_ORGANIZATION_ASSIGNMENT ( #168, #167, ( #44 ) ) ;
#81 = AXIS2_PLACEMENT_3D ( 'NONE', #76, #123, #8 ) ;
#82 = VERTEX_POINT ( 'NONE', #15 ) ;
#83 = CARTESIAN_POINT ( 'NONE',  ( 4.421503566283304632E-14, 0.0000000000000000000, 12.66368952654441138 ) ) ;
#84 = ORIENTED_EDGE ( 'NONE', *, *, #145, .F. ) ;
#85 = CARTESIAN_POINT ( 'NONE',  ( 2.793185071074506053E-14, 0.0000000000000000000, 7.999999999999998224 ) ) ;
#86 = CC_DESIGN_PERSON_AND_ORGANIZATION_ASSIGNMENT ( #1, #95, ( #105 ) ) ;
#87 = ORIENTED_EDGE ( 'NONE', *, *, #241, .T. ) ;
#88 = DATE_TIME_ROLE ( 'creation_date' ) ;
#89 = APPLICATION_CONTEXT ( 'configuration controlled 3d designs of mechanical parts and assemblies' ) ;
#90 = ADVANCED_FACE ( 'NONE', ( #94 ), #6, .T. ) ;
#91 = AXIS2_PLACEMENT_3D ( 'NONE', #85, #240, #165 ) ;
#92 = CIRCLE ( 'NONE', #91, 1.499999999999997780 ) ;
#93 = APPROVAL_ROLE ( '' ) ;
#94 = FACE_OUTER_BOUND ( 'NONE', #11, .T. ) ;
#95 = PERSON_AND_ORGANIZATION_ROLE ( 'creator' ) ;
#96 = ORIENTED_EDGE ( 'NONE', *, *, #216, .T. ) ;
#97 = DIRECTION ( 'NONE',  ( 3.491481338843133355E-15, -1.224646799147353207E-16, 1.000000000000000000 ) ) ;
#98 = CC_DESIGN_DATE_AND_TIME_ASSIGNMENT ( #136, #135, ( #44 ) ) ;
#99 = AXIS2_PLACEMENT_3D ( 'NONE', #63, #152, #237 ) ;
#100 = DIRECTION ( 'NONE',  ( 3.491481338843133355E-15, -0.0000000000000000000, 1.000000000000000000 ) ) ;
#101 = UNCERTAINTY_MEASURE_WITH_UNIT (LENGTH_MEASURE( 1.000000000000000082E-05 ), #50, 'distance_accuracy_value', 'NONE');
#102 = DIRECTION ( 'NONE',  ( -4.275831445896958607E-31, -1.000000000000000000, -1.224646799147353207E-16 ) ) ;
#103 = CC_DESIGN_PERSON_AND_ORGANIZATION_ASSIGNMENT ( #37, #67, ( #25 ) ) ;
#104 = VERTEX_POINT ( 'NONE', #201 ) ;
#105 = PRODUCT_DEFINITION_FORMATION_WITH_SPECIFIED_SOURCE ( 'ANY', '', #28, .NOT_KNOWN. ) ;
#106 = DIRECTION ( 'NONE',  ( 0.0000000000000000000, 0.0000000000000000000, 1.000000000000000000 ) ) ;
#107 = CONICAL_SURFACE ( 'NONE', #29, 3.000000000000000000, 0.7853981633974410625 ) ;
#108 = EDGE_LOOP ( 'NONE', ( #84 ) ) ;
#109 = PERSON_AND_ORGANIZATION ( #38, #153 ) ;
#110 = PRODUCT_RELATED_PRODUCT_CATEGORY ( 'detail', '', ( #28 ) ) ;
#111 = ORIENTED_EDGE ( 'NONE', *, *, #225, .T. ) ;
#112 = MECHANICAL_CONTEXT ( 'NONE', #234, 'mechanical' ) ;
#113 = CLOSED_SHELL ( 'NONE', ( #77, #141, #126, #226, #172 ) ) ;
#114 = ORIENTED_EDGE ( 'NONE', *, *, #18, .F. ) ;
#115 = DATE_AND_TIME ( #223, #210 ) ;
#116 = CALENDAR_DATE ( 2021, 17, 11 ) ;
#117 = DIRECTION ( 'NONE',  ( 0.0000000000000000000, 1.000000000000000000, 0.0000000000000000000 ) ) ;
#118 = ADVANCED_FACE ( 'NONE', ( #193, #232 ), #238, .T. ) ;
#119 = DATE_AND_TIME ( #171, #129 ) ;
#120 = FACE_OUTER_BOUND ( 'NONE', #176, .T. ) ;
#121 = PERSON_AND_ORGANIZATION_ROLE ( 'design_supplier' ) ;
#122 = PLANE ( 'NONE',  #56 ) ;
#123 = DIRECTION ( 'NONE',  ( 3.491481338843133355E-15, -0.0000000000000000000, 1.000000000000000000 ) ) ;
#124 = AXIS2_PLACEMENT_3D ( 'NONE', #194, #228, #117 ) ;
#125 = ORIENTED_EDGE ( 'NONE', *, *, #145, .T. ) ;
#126 = ADVANCED_FACE ( 'NONE', ( #72 ), #22, .F. ) ;
#127 = EDGE_CURVE ( 'NONE', #221, #221, #139, .T. ) ;
#128 = VERTEX_POINT ( 'NONE', #195 ) ;
#129 = LOCAL_TIME ( 9, 27, 0.0000000000000000000, #71 ) ;
#130 = LOCAL_TIME ( 9, 27, 0.0000000000000000000, #53 ) ;
#131 = DIRECTION ( 'NONE',  ( 3.491481338843133355E-15, -0.0000000000000000000, 1.000000000000000000 ) ) ;
#132 = APPLICATION_PROTOCOL_DEFINITION ( 'international standard', 'config_control_design', 1994, #234 ) ;
#133 = ORIENTED_EDGE ( 'NONE', *, *, #205, .T. ) ;
#134 = APPROVAL ( #33, 'UNSPECIFIED' ) ;
#135 = DATE_TIME_ROLE ( 'classification_date' ) ;
#136 = DATE_AND_TIME ( #189, #130 ) ;
#137 = EDGE_LOOP ( 'NONE', ( #87 ) ) ;
#138 = CARTESIAN_POINT ( 'NONE',  ( 1.972686956446370283E-13, -6.919254415182544548E-15, 56.49999999999999289 ) ) ;
#139 = CIRCLE ( 'NONE', #231, 1.499999999999997780 ) ;
#140 = MANIFOLD_SOLID_BREP ( 'Corps-Déplacer/Copier1[1]', #113 ) ;
#141 = ADVANCED_FACE ( 'NONE', ( #60, #55 ), #107, .T. ) ;
#142 = CYLINDRICAL_SURFACE ( 'NONE', #5, 3.000000000000000000 ) ;
#143 = EDGE_LOOP ( 'NONE', ( #111 ) ) ;
#144 = DESIGN_CONTEXT ( 'detailed design', #89, 'design' ) ;
#145 = EDGE_CURVE ( 'NONE', #82, #82, #10, .T. ) ;
#146 = CARTESIAN_POINT ( 'NONE',  ( 1.990144363140586139E-13, -6.980486755139912911E-15, 57.00000000000000000 ) ) ;
#147 = CIRCLE ( 'NONE', #99, 1.299999999999999156 ) ;
#148 = DIRECTION ( 'NONE',  ( 3.491481338843133355E-15, -1.217917285207545432E-16, 1.000000000000000000 ) ) ;
#149 = ADVANCED_BREP_SHAPE_REPRESENTATION ( '955178', ( #140, #49, #9 ), #46 ) ;
#150 = AXIS2_PLACEMENT_3D ( 'NONE', #158, #192, #235 ) ;
#151 = VERTEX_POINT ( 'NONE', #162 ) ;
#152 = DIRECTION ( 'NONE',  ( 3.491481338843133355E-15, -1.217917285207545432E-16, 1.000000000000000000 ) ) ;
#153 = ORGANIZATION ( 'UNSPECIFIED', 'UNSPECIFIED', '' ) ;
#154 = ORIENTED_EDGE ( 'NONE', *, *, #216, .F. ) ;
#155 = DIRECTION ( 'NONE',  ( -4.275831445896958607E-31, -1.000000000000000000, -1.224646799147353207E-16 ) ) ;
#156 = AXIS2_PLACEMENT_3D ( 'NONE', #173, #78, #212 ) ;
#157 = APPROVAL_ROLE ( '' ) ;
#158 = CARTESIAN_POINT ( 'NONE',  ( 1.990144363140586139E-13, 1.874699728327311610E-32, 57.00000000000000000 ) ) ;
#159 = APPROVAL_DATE_TIME ( #119, #70 ) ;
#160 = FACE_OUTER_BOUND ( 'NONE', #3, .T. ) ;
#161 = DIRECTION ( 'NONE',  ( -3.491481338843133355E-15, 1.224646799147353207E-16, -1.000000000000000000 ) ) ;
#162 = CARTESIAN_POINT ( 'NONE',  ( 6.982962677686240087E-16, -1.500000000000000000, 0.1999999999999992339 ) ) ;
#163 = LOCAL_TIME ( 9, 27, 0.0000000000000000000, #229 ) ;
#164 = DIRECTION ( 'NONE',  ( 1.000000000000000000, 0.0000000000000000000, -3.491481338843133750E-15 ) ) ;
#165 = DIRECTION ( 'NONE',  ( 1.000000000000000000, 0.0000000000000000000, -3.469446951953619316E-15 ) ) ;
#166 = LOCAL_TIME ( 9, 27, 0.0000000000000000000, #208 ) ;
#167 = PERSON_AND_ORGANIZATION_ROLE ( 'classification_officer' ) ;
#168 = PERSON_AND_ORGANIZATION ( #38, #153 ) ;
#169 = AXIS2_PLACEMENT_3D ( 'NONE', #83, #47, #185 ) ;
#170 = ORIENTED_EDGE ( 'NONE', *, *, #225, .F. ) ;
#171 = CALENDAR_DATE ( 2021, 17, 11 ) ;
#172 = ADVANCED_FACE ( 'NONE', ( #160 ), #42, .F. ) ;
#173 = CARTESIAN_POINT ( 'NONE',  ( 6.982962677686246003E-16, -2.435834570415083531E-17, 0.1999999999999994005 ) ) ;
#174 = DATE_AND_TIME ( #191, #163 ) ;
#175 = FACE_OUTER_BOUND ( 'NONE', #51, .T. ) ;
#176 = EDGE_LOOP ( 'NONE', ( #16 ) ) ;
#177 = CYLINDRICAL_SURFACE ( 'NONE', #81, 1.499999999999999112 ) ;
#178 = FACE_OUTER_BOUND ( 'NONE', #13, .T. ) ;
#179 = DIRECTION ( 'NONE',  ( -4.493836536903550616E-31, -1.000000000000000000, -1.264902534566421922E-16 ) ) ;
#180 = CIRCLE ( 'NONE', #124, 3.000000000000000000 ) ;
#181 = ADVANCED_FACE ( 'NONE', ( #178 ), #122, .T. ) ;
#182 = VERTEX_POINT ( 'NONE', #243 ) ;
#183 = DIRECTION ( 'NONE',  ( 1.000000000000000000, 0.0000000000000000000, 0.0000000000000000000 ) ) ;
#184 = PERSON_AND_ORGANIZATION_ROLE ( 'design_owner' ) ;
#185 = DIRECTION ( 'NONE',  ( -1.000000000000000000, 0.0000000000000000000, 3.469446951953614189E-15 ) ) ;
#186 = APPROVAL_STATUS ( 'not_yet_approved' ) ;
#187 = PERSON_AND_ORGANIZATION ( #38, #153 ) ;
#188 = CC_DESIGN_SECURITY_CLASSIFICATION ( #44, ( #105 ) ) ;
#189 = CALENDAR_DATE ( 2021, 17, 11 ) ;
#190 = CARTESIAN_POINT ( 'NONE',  ( 0.0000000000000000000, 0.0000000000000000000, 0.0000000000000000000 ) ) ;
#191 = CALENDAR_DATE ( 2021, 17, 11 ) ;
#192 = DIRECTION ( 'NONE',  ( -3.491481338843133355E-15, 1.224646799147353207E-16, -1.000000000000000000 ) ) ;
#193 = FACE_BOUND ( 'NONE', #48, .T. ) ;
#194 = CARTESIAN_POINT ( 'NONE',  ( 1.972686956446370283E-13, -6.919254415182544548E-15, 56.49999999999999289 ) ) ;
#195 = CARTESIAN_POINT ( 'NONE',  ( 1.972686956446370283E-13, 2.999999999999993339, 56.49999999999999289 ) ) ;
#196 = CC_DESIGN_PERSON_AND_ORGANIZATION_ASSIGNMENT ( #109, #184, ( #28 ) ) ;
#197 = AXIS2_PLACEMENT_3D ( 'NONE', #27, #148, #179 ) ;
#198 = CC_DESIGN_DATE_AND_TIME_ASSIGNMENT ( #115, #88, ( #25 ) ) ;
#199 =( NAMED_UNIT ( * ) PLANE_ANGLE_UNIT ( ) SI_UNIT ( $, .RADIAN. ) );
#200 = AXIS2_PLACEMENT_3D ( 'NONE', #217, #131, #164 ) ;
#201 = CARTESIAN_POINT ( 'NONE',  ( -2.999999999999956035, 0.0000000000000000000, 12.66368952654442204 ) ) ;
#202 = PERSON_AND_ORGANIZATION ( #38, #153 ) ;
#203 = APPROVAL ( #21, 'UNSPECIFIED' ) ;
#204 = CIRCLE ( 'NONE', #197, 1.500000000000000000 ) ;
#205 = EDGE_CURVE ( 'NONE', #151, #151, #204, .T. ) ;
#206 = APPROVAL_DATE_TIME ( #174, #203 ) ;
#207 = CARTESIAN_POINT ( 'NONE',  ( -6.413747168845438786E-31, 2.249639673992786412E-32, -1.836970198721029934E-16 ) ) ;
#208 = COORDINATED_UNIVERSAL_TIME_OFFSET ( 1, 0, .AHEAD. ) ;
#209 = APPROVAL_PERSON_ORGANIZATION ( #66, #203, #93 ) ;
#210 = LOCAL_TIME ( 9, 27, 0.0000000000000000000, #19 ) ;
#211 = DIRECTION ( 'NONE',  ( -3.491481338843133355E-15, 1.224646799147353207E-16, -1.000000000000000000 ) ) ;
#212 = DIRECTION ( 'NONE',  ( -4.493836536903550616E-31, -1.000000000000000000, -1.264902534566421922E-16 ) ) ;
#213 = FACE_OUTER_BOUND ( 'NONE', #59, .T. ) ;
#214 = DIRECTION ( 'NONE',  ( 0.0000000000000000000, 1.000000000000000000, 0.0000000000000000000 ) ) ;
#215 = FACE_OUTER_BOUND ( 'NONE', #68, .T. ) ;
#216 = EDGE_CURVE ( 'NONE', #182, #182, #147, .T. ) ;
#217 = CARTESIAN_POINT ( 'NONE',  ( 2.793185071074506684E-14, 0.0000000000000000000, 8.000000000000000000 ) ) ;
#218 = CARTESIAN_POINT ( 'NONE',  ( 1.500000000000025757, 0.0000000000000000000, 7.999999999999992895 ) ) ;
#219 = AXIS2_PLACEMENT_3D ( 'NONE', #146, #73, #214 ) ;
#220 = ORIENTED_EDGE ( 'NONE', *, *, #241, .F. ) ;
#221 = VERTEX_POINT ( 'NONE', #43 ) ;
#222 = EDGE_LOOP ( 'NONE', ( #125 ) ) ;
#223 = CALENDAR_DATE ( 2021, 17, 11 ) ;
#224 = PERSON_AND_ORGANIZATION ( #38, #153 ) ;
#225 = EDGE_CURVE ( 'NONE', #104, #104, #31, .T. ) ;
#226 = ADVANCED_FACE ( 'NONE', ( #215, #45 ), #62, .F. ) ;
#227 = SECURITY_CLASSIFICATION_LEVEL ( 'unclassified' ) ;
#228 = DIRECTION ( 'NONE',  ( -3.491481338843133355E-15, 1.224646799147353207E-16, -1.000000000000000000 ) ) ;
#229 = COORDINATED_UNIVERSAL_TIME_OFFSET ( 1, 0, .AHEAD. ) ;
#230 = CARTESIAN_POINT ( 'NONE',  ( 2.793185071074506053E-14, 0.0000000000000000000, 7.999999999999998224 ) ) ;
#231 = AXIS2_PLACEMENT_3D ( 'NONE', #230, #100, #35 ) ;
#232 = FACE_OUTER_BOUND ( 'NONE', #32, .T. ) ;
#233 = ORIENTED_EDGE ( 'NONE', *, *, #127, .T. ) ;
#234 = APPLICATION_CONTEXT ( 'configuration controlled 3d designs of mechanical parts and assemblies' ) ;
#235 = DIRECTION ( 'NONE',  ( 4.275831445896958607E-31, 1.000000000000000000, 1.224646799147353207E-16 ) ) ;
#236 = CC_DESIGN_APPROVAL ( #203, ( #44 ) ) ;
#237 = DIRECTION ( 'NONE',  ( -4.252335473556634944E-31, -1.000000000000000000, -1.217917285207545432E-16 ) ) ;
#238 = CONICAL_SURFACE ( 'NONE', #156, 1.500000000000000000, 0.7853981633974517207 ) ;
#239 = CC_DESIGN_PERSON_AND_ORGANIZATION_ASSIGNMENT ( #187, #121, ( #105 ) ) ;
#240 = DIRECTION ( 'NONE',  ( 3.491481338843133355E-15, -0.0000000000000000000, 1.000000000000000000 ) ) ;
#241 = EDGE_CURVE ( 'NONE', #64, #64, #92, .T. ) ;
#242 = APPROVAL_PERSON_ORGANIZATION ( #224, #70, #69 ) ;
#243 = CARTESIAN_POINT ( 'NONE',  ( -1.105607223124724385E-30, -1.299999999999999156, -3.166584941539615955E-16 ) ) ;
ENDSEC;
END-ISO-10303-21;
